  0
SECTION
  2
HEADER
  9
$ACADVER
  1
AC1032
  9
$ACADMAINTVER
 90
      228
  9
$DWGCODEPAGE
  3
ANSI_1252
  9
$REQUIREDVERSIONS
160
                 0
  9
$INSBASE
 10
0.0
 20
0.0
 30
0.0
  9
$EXTMIN
 10
1.000000000000000E+20
 20
1.000000000000000E+20
 30
1.000000000000000E+20
  9
$EXTMAX
 10
-1.000000000000000E+20
 20
-1.000000000000000E+20
 30
-1.000000000000000E+20
  9
$LIMMIN
 10
0.0
 20
0.0
  9
$LIMMAX
 10
12.0
 20
9.0
  9
$ORTHOMODE
 70
     0
  9
$REGENMODE
 70
     1
  9
$FILLMODE
 70
     1
  9
$QTEXTMODE
 70
     0
  9
$MIRRTEXT
 70
     0
  9
$LTSCALE
 40
1.0
  9
$ATTMODE
 70
     1
  9
$TEXTSIZE
 40
0.2
  9
$TRACEWID
 40
0.05
  9
$TEXTSTYLE
  7
Standard
  9
$CLAYER
  8
0
  9
$CELTYPE
  6
ByLayer
  9
$CECOLOR
 62
   256
  9
$CELTSCALE
 40
1.0
  9
$DISPSILH
 70
     0
  9
$DIMSCALE
 40
1.0
  9
$DIMASZ
 40
0.18
  9
$DIMEXO
 40
0.0625
  9
$DIMDLI
 40
0.38
  9
$DIMRND
 40
0.0
  9
$DIMDLE
 40
0.0
  9
$DIMEXE
 40
0.18
  9
$DIMTP
 40
0.0
  9
$DIMTM
 40
0.0
  9
$DIMTXT
 40
0.18
  9
$DIMCEN
 40
0.09
  9
$DIMTSZ
 40
0.0
  9
$DIMTOL
 70
     0
  9
$DIMLIM
 70
     0
  9
$DIMTIH
 70
     1
  9
$DIMTOH
 70
     1
  9
$DIMSE1
 70
     0
  9
$DIMSE2
 70
     0
  9
$DIMTAD
 70
     0
  9
$DIMZIN
 70
     0
  9
$DIMBLK
  1

  9
$DIMASO
 70
     1
  9
$DIMSHO
 70
     1
  9
$DIMPOST
  1

  9
$DIMAPOST
  1

  9
$DIMALT
 70
     0
  9
$DIMALTD
 70
     2
  9
$DIMALTF
 40
25.4
  9
$DIMLFAC
 40
1.0
  9
$DIMTOFL
 70
     0
  9
$DIMTVP
 40
0.0
  9
$DIMTIX
 70
     0
  9
$DIMSOXD
 70
     0
  9
$DIMSAH
 70
     0
  9
$DIMBLK1
  1

  9
$DIMBLK2
  1

  9
$DIMSTYLE
  2
Standard
  9
$DIMCLRD
 70
     0
  9
$DIMCLRE
 70
     0
  9
$DIMCLRT
 70
     0
  9
$DIMTFAC
 40
1.0
  9
$DIMGAP
 40
0.09
  9
$DIMJUST
 70
     0
  9
$DIMSD1
 70
     0
  9
$DIMSD2
 70
     0
  9
$DIMTOLJ
 70
     1
  9
$DIMTZIN
 70
     0
  9
$DIMALTZ
 70
     0
  9
$DIMALTTZ
 70
     0
  9
$DIMUPT
 70
     0
  9
$DIMDEC
 70
     4
  9
$DIMTDEC
 70
     4
  9
$DIMALTU
 70
     2
  9
$DIMALTTD
 70
     2
  9
$DIMTXSTY
  7
Standard
  9
$DIMAUNIT
 70
     0
  9
$DIMADEC
 70
     0
  9
$DIMALTRND
 40
0.0
  9
$DIMAZIN
 70
     0
  9
$DIMDSEP
 70
    46
  9
$DIMATFIT
 70
     3
  9
$DIMFRAC
 70
     0
  9
$DIMLDRBLK
  1

  9
$DIMLUNIT
 70
     2
  9
$DIMLWD
 70
    -2
  9
$DIMLWE
 70
    -2
  9
$DIMTMOVE
 70
     0
  9
$DIMFXL
 40
1.0
  9
$DIMFXLON
 70
     0
  9
$DIMJOGANG
 40
0.7853981633974483
  9
$DIMTFILL
 70
     0
  9
$DIMTFILLCLR
 70
     0
  9
$DIMARCSYM
 70
     0
  9
$DIMLTYPE
  6

  9
$DIMLTEX1
  6

  9
$DIMLTEX2
  6

  9
$DIMTXTDIRECTION
 70
     0
  9
$LUNITS
 70
     2
  9
$LUPREC
 70
     4
  9
$SKETCHINC
 40
0.1
  9
$FILLETRAD
 40
0.0
  9
$AUNITS
 70
     0
  9
$AUPREC
 70
     0
  9
$MENU
  1
.
  9
$ELEVATION
 40
0.0
  9
$PELEVATION
 40
0.0
  9
$THICKNESS
 40
0.0
  9
$LIMCHECK
 70
     0
  9
$CHAMFERA
 40
0.0
  9
$CHAMFERB
 40
0.0
  9
$CHAMFERC
 40
0.0
  9
$CHAMFERD
 40
0.0
  9
$SKPOLY
 70
     0
  9
$TDCREATE
 40
2460340.067407408
  9
$TDUCREATE
 40
2460340.400740741
  9
$TDUPDATE
 40
2460340.067407408
  9
$TDUUPDATE
 40
2460340.400740741
  9
$TDINDWG
 40
0.0000000000
  9
$TDUSRTIMER
 40
0.0000000000
  9
$USRTIMER
 70
     1
  9
$ANGBASE
 50
0.0
  9
$ANGDIR
 70
     0
  9
$PDMODE
 70
     0
  9
$PDSIZE
 40
0.0
  9
$PLINEWID
 40
0.0
  9
$SPLFRAME
 70
     0
  9
$SPLINETYPE
 70
     6
  9
$SPLINESEGS
 70
     8
  9
$HANDSEED
  5
1A5
  9
$SURFTAB1
 70
     6
  9
$SURFTAB2
 70
     6
  9
$SURFTYPE
 70
     6
  9
$SURFU
 70
     6
  9
$SURFV
 70
     6
  9
$UCSBASE
  2

  9
$UCSNAME
  2

  9
$UCSORG
 10
0.0
 20
0.0
 30
0.0
  9
$UCSXDIR
 10
1.0
 20
0.0
 30
0.0
  9
$UCSYDIR
 10
0.0
 20
1.0
 30
0.0
  9
$UCSORTHOREF
  2

  9
$UCSORTHOVIEW
 70
     0
  9
$UCSORGTOP
 10
0.0
 20
0.0
 30
0.0
  9
$UCSORGBOTTOM
 10
0.0
 20
0.0
 30
0.0
  9
$UCSORGLEFT
 10
0.0
 20
0.0
 30
0.0
  9
$UCSORGRIGHT
 10
0.0
 20
0.0
 30
0.0
  9
$UCSORGFRONT
 10
0.0
 20
0.0
 30
0.0
  9
$UCSORGBACK
 10
0.0
 20
0.0
 30
0.0
  9
$PUCSBASE
  2

  9
$PUCSNAME
  2

  9
$PUCSORG
 10
0.0
 20
0.0
 30
0.0
  9
$PUCSXDIR
 10
1.0
 20
0.0
 30
0.0
  9
$PUCSYDIR
 10
0.0
 20
1.0
 30
0.0
  9
$PUCSORTHOREF
  2

  9
$PUCSORTHOVIEW
 70
     0
  9
$PUCSORGTOP
 10
0.0
 20
0.0
 30
0.0
  9
$PUCSORGBOTTOM
 10
0.0
 20
0.0
 30
0.0
  9
$PUCSORGLEFT
 10
0.0
 20
0.0
 30
0.0
  9
$PUCSORGRIGHT
 10
0.0
 20
0.0
 30
0.0
  9
$PUCSORGFRONT
 10
0.0
 20
0.0
 30
0.0
  9
$PUCSORGBACK
 10
0.0
 20
0.0
 30
0.0
  9
$USERI1
 70
     0
  9
$USERI2
 70
     0
  9
$USERI3
 70
     0
  9
$USERI4
 70
     0
  9
$USERI5
 70
     0
  9
$USERR1
 40
0.0
  9
$USERR2
 40
0.0
  9
$USERR3
 40
0.0
  9
$USERR4
 40
0.0
  9
$USERR5
 40
0.0
  9
$WORLDVIEW
 70
     1
  9
$SHADEDGE
 70
     3
  9
$SHADEDIF
 70
    70
  9
$TILEMODE
 70
     1
  9
$MAXACTVP
 70
    64
  9
$PINSBASE
 10
0.0
 20
0.0
 30
0.0
  9
$PLIMCHECK
 70
     0
  9
$PEXTMIN
 10
1.000000000000000E+20
 20
1.000000000000000E+20
 30
1.000000000000000E+20
  9
$PEXTMAX
 10
-1.000000000000000E+20
 20
-1.000000000000000E+20
 30
-1.000000000000000E+20
  9
$PLIMMIN
 10
0.0
 20
0.0
  9
$PLIMMAX
 10
12.0
 20
9.0
  9
$UNITMODE
 70
     0
  9
$VISRETAIN
 70
     1
  9
$PLINEGEN
 70
     0
  9
$PSLTSCALE
 70
     1
  9
$TREEDEPTH
 70
  3020
  9
$CMLSTYLE
  2
Standard
  9
$CMLJUST
 70
     0
  9
$CMLSCALE
 40
1.0
  9
$PROXYGRAPHICS
 70
     1
  9
$MEASUREMENT
 70
     0
  9
$CELWEIGHT
370
    -1
  9
$ENDCAPS
280
     0
  9
$JOINSTYLE
280
     0
  9
$LWDISPLAY
290
     1
  9
$INSUNITS
 70
     1
  9
$HYPERLINKBASE
  1

  9
$STYLESHEET
  1

  9
$XEDIT
290
     1
  9
$CEPSNTYPE
380
     0
  9
$PSTYLEMODE
290
     1
  9
$FINGERPRINTGUID
  2
{F670B5A0-2F8F-8D4A-A6B2-4141F02DD092}
  9
$VERSIONGUID
  2
{38E432F3-16AD-0140-8F4B-B13E55466B2C}
  9
$EXTNAMES
290
     1
  9
$PSVPSCALE
 40
0.0
  9
$OLESTARTUP
290
     0
  9
$SORTENTS
280
   127
  9
$INDEXCTL
280
     0
  9
$HIDETEXT
280
     1
  9
$XCLIPFRAME
280
     2
  9
$HALOGAP
280
     0
  9
$OBSCOLOR
 70
   257
  9
$OBSLTYPE
280
     0
  9
$INTERSECTIONDISPLAY
280
     0
  9
$INTERSECTIONCOLOR
 70
   257
  9
$DIMASSOC
280
     2
  9
$PROJECTNAME
  1

  9
$CAMERADISPLAY
290
     0
  9
$LENSLENGTH
 40
50.0
  9
$CAMERAHEIGHT
 40
0.0
  9
$STEPSPERSEC
 40
2.0
  9
$STEPSIZE
 40
6.0
  9
$3DDWFPREC
 40
2.0
  9
$PSOLWIDTH
 40
0.25
  9
$PSOLHEIGHT
 40
4.0
  9
$LOFTANG1
 40
1.570796326794896
  9
$LOFTANG2
 40
1.570796326794896
  9
$LOFTMAG1
 40
0.0
  9
$LOFTMAG2
 40
0.0
  9
$LOFTPARAM
 70
     7
  9
$LOFTNORMALS
280
     1
  9
$LATITUDE
 40
37.795
  9
$LONGITUDE
 40
-122.394
  9
$NORTHDIRECTION
 40
0.0
  9
$TIMEZONE
 70
 -8000
  9
$LIGHTGLYPHDISPLAY
280
     1
  9
$TILEMODELIGHTSYNCH
280
     1
  9
$CMATERIAL
347
11
  9
$SOLIDHIST
280
     0
  9
$SHOWHIST
280
     1
  9
$DWFFRAME
280
     2
  9
$DGNFRAME
280
     0
  9
$REALWORLDSCALE
290
     1
  9
$INTERFERECOLOR
 62
     1
  9
$INTERFEREOBJVS
345
33
  9
$INTERFEREVPVS
346
30
  9
$CSHADOW
280
     0
  9
$SHADOWPLANELOCATION
 40
0.0
  0
ENDSEC
  0
SECTION
  2
CLASSES
  0
CLASS
  1
ACDBDICTIONARYWDFLT
  2
AcDbDictionaryWithDefault
  3
ObjectDBX Classes
 90
        0
 91
        1
280
     0
281
     0
  0
CLASS
  1
MATERIAL
  2
AcDbMaterial
  3
ObjectDBX Classes
 90
     1153
 91
        3
280
     0
281
     0
  0
CLASS
  1
VISUALSTYLE
  2
AcDbVisualStyle
  3
ObjectDBX Classes
 90
     4095
 91
       24
280
     0
281
     0
  0
CLASS
  1
SCALE
  2
AcDbScale
  3
ObjectDBX Classes
 90
     1153
 91
       17
280
     0
281
     0
  0
CLASS
  1
TABLESTYLE
  2
AcDbTableStyle
  3
ObjectDBX Classes
 90
     4095
 91
        1
280
     0
281
     0
  0
CLASS
  1
MLEADERSTYLE
  2
AcDbMLeaderStyle
  3
ACDB_MLEADERSTYLE_CLASS
 90
     4095
 91
        1
280
     0
281
     0
  0
CLASS
  1
ACDBSECTIONVIEWSTYLE
  2
AcDbSectionViewStyle
  3
ObjectDBX Classes
 90
     1025
 91
        1
280
     0
281
     0
  0
CLASS
  1
ACDBDETAILVIEWSTYLE
  2
AcDbDetailViewStyle
  3
ObjectDBX Classes
 90
     1025
 91
        1
280
     0
281
     0
  0
CLASS
  1
DICTIONARYVAR
  2
AcDbDictionaryVar
  3
ObjectDBX Classes
 90
        0
 91
        5
280
     0
281
     0
  0
CLASS
  1
CELLSTYLEMAP
  2
AcDbCellStyleMap
  3
ObjectDBX Classes
 90
     1152
 91
        1
280
     0
281
     0
  0
ENDSEC
  0
SECTION
  2
TABLES
  0
TABLE
  2
VPORT
  5
8
330
0
100
AcDbSymbolTable
 70
     1
  0
VPORT
  5
57
330
8
100
AcDbSymbolTableRecord
100
AcDbViewportTableRecord
  2
*Active
 70
     0
 10
0.0
 20
0.0
 11
1.0
 21
1.0
 12
0.0
 22
0.0
 13
0.0
 23
0.0
 14
1.0
 24
1.0
 15
0.0
 25
0.0
 16
0.0
 26
0.0
 36
1.0
 17
3.710119176793979
 27
-2.245370370370361
 37
0.0
 40
11.95666666666666
 41
1.798093003307662
 42
50.0
 43
0.0
 44
0.0
 50
0.0
 51
0.0
 71
     0
 72
   100
 73
     1
 74
     1
 75
     0
 76
     0
 77
     0
 78
     0
281
     0
 65
     1
110
0.0
120
0.0
130
0.0
111
1.0
121
0.0
131
0.0
112
0.0
122
1.0
132
0.0
 79
     0
146
0.0
 60
     3
 61
     5
292
     1
282
     1
141
0.0
142
0.0
 63
   250
421
  3355443
  0
ENDTAB
  0
TABLE
  2
LTYPE
  5
5
330
0
100
AcDbSymbolTable
 70
     1
  0
LTYPE
  5
5B
330
5
100
AcDbSymbolTableRecord
100
AcDbLinetypeTableRecord
  2
ByBlock
 70
     0
  3

 72
    65
 73
     0
 40
0.0
  0
LTYPE
  5
5C
330
5
100
AcDbSymbolTableRecord
100
AcDbLinetypeTableRecord
  2
ByLayer
 70
     0
  3

 72
    65
 73
     0
 40
0.0
  0
LTYPE
  5
5D
330
5
100
AcDbSymbolTableRecord
100
AcDbLinetypeTableRecord
  2
Continuous
 70
     0
  3
Solid line
 72
    65
 73
     0
 40
0.0
  0
ENDTAB
  0
TABLE
  2
LAYER
  5
2
330
0
100
AcDbSymbolTable
 70
     2
  0
LAYER
  5
54
330
2
100
AcDbSymbolTableRecord
100
AcDbLayerTableRecord
  2
0
 70
     0
 62
     7
  6
Continuous
370
    -3
390
F
347
21
348
0
  0
LAYER
  5
78
330
2
100
AcDbSymbolTableRecord
100
AcDbLayerTableRecord
  2
Layer 1
 70
     0
 62
     7
  6
Continuous
370
     0
390
F
347
21
348
0
  0
ENDTAB
  0
TABLE
  2
STYLE
  5
3
330
0
100
AcDbSymbolTable
 70
     2
  0
STYLE
  5
55
330
3
100
AcDbSymbolTableRecord
100
AcDbTextStyleTableRecord
  2
Standard
 70
     0
 40
0.0
 41
1.0
 50
0.0
 71
     0
 42
0.2
  3
txt
  4

  0
STYLE
  5
5A
330
3
100
AcDbSymbolTableRecord
100
AcDbTextStyleTableRecord
  2
Annotative
 70
     0
 40
0.0
 41
1.0
 50
0.0
 71
     0
 42
0.2
  3
txt
  4

1001
AcadAnnotative
1000
AnnotativeData
1002
{
1070
     1
1070
     1
1002
}
  0
ENDTAB
  0
TABLE
  2
VIEW
  5
6
330
0
100
AcDbSymbolTable
 70
     0
  0
ENDTAB
  0
TABLE
  2
UCS
  5
7
330
0
100
AcDbSymbolTable
 70
     0
  0
ENDTAB
  0
TABLE
  2
APPID
  5
9
330
0
100
AcDbSymbolTable
 70
     2
  0
APPID
  5
56
330
9
100
AcDbSymbolTableRecord
100
AcDbRegAppTableRecord
  2
ACAD
 70
     0
  0
APPID
  5
5E
330
9
100
AcDbSymbolTableRecord
100
AcDbRegAppTableRecord
  2
AcadAnnotative
 70
     0
  0
ENDTAB
  0
TABLE
  2
DIMSTYLE
  5
A
330
0
100
AcDbSymbolTable
 70
     2
100
AcDbDimStyleTable
 71
     0
  0
DIMSTYLE
105
58
330
A
100
AcDbSymbolTableRecord
100
AcDbDimStyleTableRecord
  2
Standard
 70
     0
340
55
  0
DIMSTYLE
105
59
330
A
100
AcDbSymbolTableRecord
100
AcDbDimStyleTableRecord
  2
Annotative
 70
     0
340
55
1001
AcadAnnotative
1000
AnnotativeData
1002
{
1070
     1
1070
     1
1002
}
  0
ENDTAB
  0
TABLE
  2
BLOCK_RECORD
  5
1
330
0
100
AcDbSymbolTable
 70
    39
  0
BLOCK_RECORD
  5
70
330
1
100
AcDbSymbolTableRecord
100
AcDbBlockTableRecord
  2
*Model_Space
340
73
 70
     0
280
     1
281
     0
  0
BLOCK_RECORD
  5
6C
330
1
100
AcDbSymbolTableRecord
100
AcDbBlockTableRecord
  2
*Paper_Space
340
6F
 70
     0
280
     1
281
     0
  0
BLOCK_RECORD
  5
74
330
1
100
AcDbSymbolTableRecord
100
AcDbBlockTableRecord
  2
*Paper_Space0
340
77
 70
     0
280
     1
281
     0
  0
BLOCK_RECORD
  5
79
330
1
100
AcDbSymbolTableRecord
100
AcDbBlockTableRecord
  2
Block_0
340
0
102
{BLKREFS
331
7A
102
}
 70
     0
280
     1
281
     0
  0
BLOCK_RECORD
  5
7D
330
1
100
AcDbSymbolTableRecord
100
AcDbBlockTableRecord
  2
Block_1
340
0
102
{BLKREFS
331
7E
102
}
 70
     0
280
     1
281
     0
  0
BLOCK_RECORD
  5
81
330
1
100
AcDbSymbolTableRecord
100
AcDbBlockTableRecord
  2
Block_2
340
0
102
{BLKREFS
331
82
102
}
 70
     0
280
     1
281
     0
  0
BLOCK_RECORD
  5
85
330
1
100
AcDbSymbolTableRecord
100
AcDbBlockTableRecord
  2
Block_3
340
0
102
{BLKREFS
331
86
102
}
 70
     0
280
     1
281
     0
  0
BLOCK_RECORD
  5
8D
330
1
100
AcDbSymbolTableRecord
100
AcDbBlockTableRecord
  2
Block_4
340
0
102
{BLKREFS
331
8E
102
}
 70
     0
280
     1
281
     0
  0
BLOCK_RECORD
  5
93
330
1
100
AcDbSymbolTableRecord
100
AcDbBlockTableRecord
  2
Block_5
340
0
102
{BLKREFS
331
94
102
}
 70
     0
280
     1
281
     0
  0
BLOCK_RECORD
  5
AE
330
1
100
AcDbSymbolTableRecord
100
AcDbBlockTableRecord
  2
Block_6
340
0
102
{BLKREFS
331
AF
102
}
 70
     0
280
     1
281
     0
  0
BLOCK_RECORD
  5
C5
330
1
100
AcDbSymbolTableRecord
100
AcDbBlockTableRecord
  2
Block_7
340
0
102
{BLKREFS
331
C6
102
}
 70
     0
280
     1
281
     0
  0
BLOCK_RECORD
  5
C9
330
1
100
AcDbSymbolTableRecord
100
AcDbBlockTableRecord
  2
Block_8
340
0
102
{BLKREFS
331
CA
102
}
 70
     0
280
     1
281
     0
  0
BLOCK_RECORD
  5
D2
330
1
100
AcDbSymbolTableRecord
100
AcDbBlockTableRecord
  2
Block_9
340
0
102
{BLKREFS
331
D3
102
}
 70
     0
280
     1
281
     0
  0
BLOCK_RECORD
  5
D7
330
1
100
AcDbSymbolTableRecord
100
AcDbBlockTableRecord
  2
Block_10
340
0
102
{BLKREFS
331
D8
102
}
 70
     0
280
     1
281
     0
  0
BLOCK_RECORD
  5
DB
330
1
100
AcDbSymbolTableRecord
100
AcDbBlockTableRecord
  2
Block_11
340
0
102
{BLKREFS
331
DC
102
}
 70
     0
280
     1
281
     0
  0
BLOCK_RECORD
  5
E2
330
1
100
AcDbSymbolTableRecord
100
AcDbBlockTableRecord
  2
Block_12
340
0
102
{BLKREFS
331
E3
102
}
 70
     0
280
     1
281
     0
  0
BLOCK_RECORD
  5
EB
330
1
100
AcDbSymbolTableRecord
100
AcDbBlockTableRecord
  2
Block_13
340
0
102
{BLKREFS
331
EC
102
}
 70
     0
280
     1
281
     0
  0
BLOCK_RECORD
  5
EF
330
1
100
AcDbSymbolTableRecord
100
AcDbBlockTableRecord
  2
Block_14
340
0
102
{BLKREFS
331
F0
102
}
 70
     0
280
     1
281
     0
  0
BLOCK_RECORD
  5
F3
330
1
100
AcDbSymbolTableRecord
100
AcDbBlockTableRecord
  2
Block_15
340
0
102
{BLKREFS
331
F4
102
}
 70
     0
280
     1
281
     0
  0
BLOCK_RECORD
  5
F8
330
1
100
AcDbSymbolTableRecord
100
AcDbBlockTableRecord
  2
Block_16
340
0
102
{BLKREFS
331
F9
102
}
 70
     0
280
     1
281
     0
  0
BLOCK_RECORD
  5
FC
330
1
100
AcDbSymbolTableRecord
100
AcDbBlockTableRecord
  2
Block_17
340
0
102
{BLKREFS
331
FD
102
}
 70
     0
280
     1
281
     0
  0
BLOCK_RECORD
  5
100
330
1
100
AcDbSymbolTableRecord
100
AcDbBlockTableRecord
  2
Block_18
340
0
102
{BLKREFS
331
101
102
}
 70
     0
280
     1
281
     0
  0
BLOCK_RECORD
  5
105
330
1
100
AcDbSymbolTableRecord
100
AcDbBlockTableRecord
  2
Block_19
340
0
102
{BLKREFS
331
106
102
}
 70
     0
280
     1
281
     0
  0
BLOCK_RECORD
  5
109
330
1
100
AcDbSymbolTableRecord
100
AcDbBlockTableRecord
  2
Block_20
340
0
102
{BLKREFS
331
10A
102
}
 70
     0
280
     1
281
     0
  0
BLOCK_RECORD
  5
10D
330
1
100
AcDbSymbolTableRecord
100
AcDbBlockTableRecord
  2
Block_21
340
0
102
{BLKREFS
331
10E
102
}
 70
     0
280
     1
281
     0
  0
BLOCK_RECORD
  5
111
330
1
100
AcDbSymbolTableRecord
100
AcDbBlockTableRecord
  2
Block_22
340
0
102
{BLKREFS
331
112
102
}
 70
     0
280
     1
281
     0
  0
BLOCK_RECORD
  5
116
330
1
100
AcDbSymbolTableRecord
100
AcDbBlockTableRecord
  2
Block_23
340
0
102
{BLKREFS
331
117
102
}
 70
     0
280
     1
281
     0
  0
BLOCK_RECORD
  5
11A
330
1
100
AcDbSymbolTableRecord
100
AcDbBlockTableRecord
  2
Block_24
340
0
102
{BLKREFS
331
11B
102
}
 70
     0
280
     1
281
     0
  0
BLOCK_RECORD
  5
11E
330
1
100
AcDbSymbolTableRecord
100
AcDbBlockTableRecord
  2
Block_25
340
0
102
{BLKREFS
331
11F
102
}
 70
     0
280
     1
281
     0
  0
BLOCK_RECORD
  5
122
330
1
100
AcDbSymbolTableRecord
100
AcDbBlockTableRecord
  2
Block_26
340
0
102
{BLKREFS
331
123
102
}
 70
     0
280
     1
281
     0
  0
BLOCK_RECORD
  5
126
330
1
100
AcDbSymbolTableRecord
100
AcDbBlockTableRecord
  2
Block_27
340
0
102
{BLKREFS
331
127
102
}
 70
     0
280
     1
281
     0
  0
BLOCK_RECORD
  5
12B
330
1
100
AcDbSymbolTableRecord
100
AcDbBlockTableRecord
  2
Block_28
340
0
102
{BLKREFS
331
12C
102
}
 70
     0
280
     1
281
     0
  0
BLOCK_RECORD
  5
12F
330
1
100
AcDbSymbolTableRecord
100
AcDbBlockTableRecord
  2
Block_29
340
0
102
{BLKREFS
331
130
102
}
 70
     0
280
     1
281
     0
  0
BLOCK_RECORD
  5
133
330
1
100
AcDbSymbolTableRecord
100
AcDbBlockTableRecord
  2
Block_30
340
0
102
{BLKREFS
331
134
102
}
 70
     0
280
     1
281
     0
  0
BLOCK_RECORD
  5
137
330
1
100
AcDbSymbolTableRecord
100
AcDbBlockTableRecord
  2
Block_31
340
0
102
{BLKREFS
331
138
102
}
 70
     0
280
     1
281
     0
  0
BLOCK_RECORD
  5
13B
330
1
100
AcDbSymbolTableRecord
100
AcDbBlockTableRecord
  2
Block_32
340
0
102
{BLKREFS
331
13C
102
}
 70
     0
280
     1
281
     0
  0
BLOCK_RECORD
  5
140
330
1
100
AcDbSymbolTableRecord
100
AcDbBlockTableRecord
  2
Block_33
340
0
102
{BLKREFS
331
141
102
}
 70
     0
280
     1
281
     0
  0
BLOCK_RECORD
  5
144
330
1
100
AcDbSymbolTableRecord
100
AcDbBlockTableRecord
  2
Block_34
340
0
102
{BLKREFS
331
145
102
}
 70
     0
280
     1
281
     0
  0
BLOCK_RECORD
  5
156
330
1
100
AcDbSymbolTableRecord
100
AcDbBlockTableRecord
  2
Block_35
340
0
102
{BLKREFS
331
157
102
}
 70
     0
280
     1
281
     0
  0
BLOCK_RECORD
  5
16C
330
1
100
AcDbSymbolTableRecord
100
AcDbBlockTableRecord
  2
Block_36
340
0
102
{BLKREFS
331
16D
102
}
 70
     0
280
     1
281
     0
  0
BLOCK_RECORD
  5
183
330
1
100
AcDbSymbolTableRecord
100
AcDbBlockTableRecord
  2
Block_37
340
0
102
{BLKREFS
331
184
102
}
 70
     0
280
     1
281
     0
  0
ENDTAB
  0
ENDSEC
  0
SECTION
  2
BLOCKS
  0
BLOCK
  5
71
330
70
100
AcDbEntity
  8
0
100
AcDbBlockBegin
  2
*Model_Space
 70
     0
 10
0.0
 20
0.0
 30
0.0
  3
*Model_Space
  1

  0
ENDBLK
  5
72
330
70
100
AcDbEntity
  8
0
100
AcDbBlockEnd
  0
BLOCK
  5
6D
330
6C
100
AcDbEntity
 67
     1
  8
0
100
AcDbBlockBegin
  2
*Paper_Space
 70
     0
 10
0.0
 20
0.0
 30
0.0
  3
*Paper_Space
  1

  0
ENDBLK
  5
6E
330
6C
100
AcDbEntity
 67
     1
  8
0
100
AcDbBlockEnd
  0
BLOCK
  5
75
330
74
100
AcDbEntity
 67
     1
  8
0
100
AcDbBlockBegin
  2
*Paper_Space0
 70
     0
 10
0.0
 20
0.0
 30
0.0
  3
*Paper_Space0
  1

  0
ENDBLK
  5
76
330
74
100
AcDbEntity
 67
     1
  8
0
100
AcDbBlockEnd
  0
BLOCK
  5
7B
330
79
100
AcDbEntity
  8
0
100
AcDbBlockBegin
  2
Block_0
 70
     0
 10
0.0
 20
0.0
 30
0.0
  3
Block_0
  1

  0
INSERT
  5
7E
330
79
100
AcDbEntity
  8
Layer 1
100
AcDbBlockReference
  2
Block_1
 10
0.0
 20
0.0
 30
0.0
  0
SPLINE
  5
AD
330
79
100
AcDbEntity
  8
Layer 1
 62
   215
420
  9916062
370
     9
100
AcDbSpline
210
0.0
220
0.0
230
1.0
 70
     9
 71
     3
 72
    77
 73
    73
 74
     0
 42
0.0000000001
 43
0.0000000001
 40
0.0
 40
0.0
 40
0.0
 40
0.0
 40
1.0
 40
1.0
 40
1.0
 40
2.0
 40
2.0
 40
2.0
 40
3.0
 40
3.0
 40
3.0
 40
4.0
 40
4.0
 40
4.0
 40
5.0
 40
5.0
 40
5.0
 40
6.0
 40
6.0
 40
6.0
 40
7.0
 40
7.0
 40
7.0
 40
8.0
 40
8.0
 40
8.0
 40
9.0
 40
9.0
 40
9.0
 40
10.0
 40
10.0
 40
10.0
 40
11.0
 40
11.0
 40
11.0
 40
12.0
 40
12.0
 40
12.0
 40
13.0
 40
13.0
 40
13.0
 40
14.0
 40
14.0
 40
14.0
 40
15.0
 40
15.0
 40
15.0
 40
16.0
 40
16.0
 40
16.0
 40
17.0
 40
17.0
 40
17.0
 40
18.0
 40
18.0
 40
18.0
 40
19.0
 40
19.0
 40
19.0
 40
20.0
 40
20.0
 40
20.0
 40
21.0
 40
21.0
 40
21.0
 40
22.0
 40
22.0
 40
22.0
 40
23.0
 40
23.0
 40
23.0
 40
24.0
 40
24.0
 40
24.0
 40
24.0
 10
4.874451044930284
 20
2.592209675839651
 30
0.0
 10
4.874451044930284
 20
2.592209675839651
 30
0.0
 10
5.2952843337589
 20
2.592209675839651
 30
0.0
 10
5.2952843337589
 20
2.592209675839651
 30
0.0
 10
5.306330028755533
 20
2.592209675839651
 30
0.0
 10
5.315284333758906
 20
2.583255370836278
 30
0.0
 10
5.315284333758906
 20
2.572209675839669
 30
0.0
 10
5.315284333758906
 20
2.572209675839669
 30
0.0
 10
5.315284333758906
 20
2.402070767877337
 30
0.0
 10
5.315284333758906
 20
2.402070767877337
 30
0.0
 10
5.315284333758906
 20
2.391025072880754
 30
0.0
 10
5.306330028755533
 20
2.382070767877356
 30
0.0
 10
5.2952843337589
 20
2.382070767877356
 30
0.0
 10
5.2952843337589
 20
2.382070767877356
 30
0.0
 10
5.285217689344587
 20
2.382070767877356
 30
0.0
 10
5.285217689344587
 20
2.382070767877356
 30
0.0
 10
5.274171994348003
 20
2.382070767877356
 30
0.0
 10
5.265217689344606
 20
2.373116462873958
 30
0.0
 10
5.265217689344606
 20
2.362070767877374
 30
0.0
 10
5.265217689344606
 20
2.362070767877374
 30
0.0
 10
5.265217689344606
 20
2.236550114781556
 30
0.0
 10
5.265217689344606
 20
2.236550114781556
 30
0.0
 10
5.265217689344606
 20
2.217763779395492
 30
0.0
 10
5.257341990954576
 20
2.199837847626251
 30
0.0
 10
5.243505381611308
 20
2.187130580448878
 30
0.0
 10
5.243505381611308
 20
2.187130580448878
 30
0.0
 10
5.24269106580348
 20
2.186382728986106
 30
0.0
 10
5.24269106580348
 20
2.186382728986106
 30
0.0
 10
5.228854456460187
 20
2.173675461808683
 30
0.0
 10
5.220978758070158
 20
2.155749530039492
 30
0.0
 10
5.220978758070158
 20
2.136963194653427
 30
0.0
 10
5.220978758070158
 20
2.136963194653427
 30
0.0
 10
5.220978758070158
 20
2.09280631500821
 30
0.0
 10
5.220978758070158
 20
2.09280631500821
 30
0.0
 10
5.220978758070158
 20
2.048623535021748
 30
0.0
 10
5.185161538056616
 20
2.012806315008206
 30
0.0
 10
5.140978758070155
 20
2.012806315008206
 30
0.0
 10
5.140978758070155
 20
2.012806315008206
 30
0.0
 10
5.028756620619055
 20
2.012806315008206
 30
0.0
 10
5.028756620619055
 20
2.012806315008206
 30
0.0
 10
4.984573840632593
 20
2.012806315008206
 30
0.0
 10
4.948756620619051
 20
2.048623535021748
 30
0.0
 10
4.948756620619051
 20
2.09280631500821
 30
0.0
 10
4.948756620619051
 20
2.09280631500821
 30
0.0
 10
4.948756620619051
 20
2.137280332090654
 30
0.0
 10
4.948756620619051
 20
2.137280332090654
 30
0.0
 10
4.948756620619051
 20
2.156247892989654
 30
0.0
 10
4.940728778056786
 20
2.1743293551015
 30
0.0
 10
4.926659587499822
 20
2.187050449532774
 30
0.0
 10
4.926659587499822
 20
2.187050449532774
 30
0.0
 10
4.926659543260888
 20
2.187050489532755
 30
0.0
 10
4.926659543260888
 20
2.187050489532755
 30
0.0
 10
4.912564277037366
 20
2.199795161085615
 30
0.0
 10
4.904534005284024
 20
2.21791883140765
 30
0.0
 10
4.904562586033862
 20
2.236921525059958
 30
0.0
 10
4.904562586033862
 20
2.236921525059958
 30
0.0
 10
4.904750769853358
 20
2.36204068717614
 30
0.0
 10
4.904750769853358
 20
2.36204068717614
 30
0.0
 10
4.90476740063693
 20
2.373098118745512
 30
0.0
 10
4.895808236550616
 20
2.382070767877356
 30
0.0
 10
4.884750792474581
 20
2.382070767877356
 30
0.0
 10
4.884750792474581
 20
2.382070767877356
 30
0.0
 10
4.874451044930284
 20
2.382070767877356
 30
0.0
 10
4.874451044930284
 20
2.382070767877356
 30
0.0
 10
4.8634053499337
 20
2.382070767877356
 30
0.0
 10
4.854451044930303
 20
2.391025072880754
 30
0.0
 10
4.854451044930303
 20
2.402070767877337
 30
0.0
 10
4.854451044930303
 20
2.402070767877337
 30
0.0
 10
4.854451044930303
 20
2.572209675839669
 30
0.0
 10
4.854451044930303
 20
2.572209675839669
 30
0.0
 10
4.854451044930303
 20
2.583255370836278
 30
0.0
 10
4.8634053499337
 20
2.592209675839651
 30
0.0
 10
4.874451044930284
 20
2.592209675839651
 30
0.0
  0
ENDBLK
  5
7C
330
79
100
AcDbEntity
  8
0
100
AcDbBlockEnd
  0
BLOCK
  5
7F
330
7D
100
AcDbEntity
  8
0
100
AcDbBlockBegin
  2
Block_1
 70
     0
 10
0.0
 20
0.0
 30
0.0
  3
Block_1
  1

  0
INSERT
  5
82
330
7D
100
AcDbEntity
  8
Layer 1
100
AcDbBlockReference
  2
Block_2
 10
0.0
 20
0.0
 30
0.0
  0
LWPOLYLINE
  5
99
330
7D
100
AcDbEntity
  8
Layer 1
 62
   250
420
  2301728
370
     0
100
AcDbPolyline
 90
        1
 70
     0
 43
0.0
 10
5.025703449616963
 20
2.592209675839651
  0
LWPOLYLINE
  5
9A
330
7D
100
AcDbEntity
  8
Layer 1
 62
   250
420
  2301728
370
     0
100
AcDbPolyline
 90
        1
 70
     0
 43
0.0
 10
5.025703449616963
 20
2.562209675839679
  0
LWPOLYLINE
  5
9B
330
7D
100
AcDbEntity
  8
Layer 1
 62
   250
420
  2301728
370
     0
100
AcDbPolyline
 90
        1
 70
     0
 43
0.0
 10
4.951112862097261
 20
2.237561855753395
  0
LWPOLYLINE
  5
9C
330
7D
100
AcDbEntity
  8
Layer 1
 62
   250
420
  2301728
370
     0
100
AcDbPolyline
 90
        1
 70
     0
 43
0.0
 10
4.951112862097261
 20
2.167561855753433
  0
LWPOLYLINE
  5
9D
330
7D
100
AcDbEntity
  8
Layer 1
 62
   250
420
  2301728
370
     0
100
AcDbPolyline
 90
        1
 70
     0
 43
0.0
 10
5.034728791978623
 20
2.062806315008212
  0
LWPOLYLINE
  5
9E
330
7D
100
AcDbEntity
  8
Layer 1
 62
   250
420
  2301728
370
     0
100
AcDbPolyline
 90
        1
 70
     0
 43
0.0
 10
5.034728791978623
 20
2.012806315008232
  0
LWPOLYLINE
  5
9F
330
7D
100
AcDbEntity
  8
Layer 1
 62
   250
420
  2301728
370
     0
100
AcDbPolyline
 90
        1
 70
     0
 43
0.0
 10
5.146237171410499
 20
2.134750657727396
  0
LWPOLYLINE
  5
A0
330
7D
100
AcDbEntity
  8
Layer 1
 62
   250
420
  2301728
370
     0
100
AcDbPolyline
 90
        1
 70
     0
 43
0.0
 10
5.146237171410499
 20
2.237561855753395
  0
LWPOLYLINE
  5
A1
330
7D
100
AcDbEntity
  8
Layer 1
 62
   250
420
  2301728
370
     0
100
AcDbPolyline
 90
        1
 70
     0
 43
0.0
 10
5.313575852730283
 20
2.487140221858491
  0
LWPOLYLINE
  5
A2
330
7D
100
AcDbEntity
  8
Layer 1
 62
   250
420
  2301728
370
     0
100
AcDbPolyline
 90
        1
 70
     0
 43
0.0
 10
5.283575852730286
 20
2.487140221858491
  0
LWPOLYLINE
  5
A3
330
7D
100
AcDbEntity
  8
Layer 1
 62
   250
420
  2301728
370
     0
100
AcDbPolyline
 90
        1
 70
     0
 43
0.0
 10
5.176466770726114
 20
2.412070767877303
  0
LWPOLYLINE
  5
A4
330
7D
100
AcDbEntity
  8
Layer 1
 62
   250
420
  2301728
370
     0
100
AcDbPolyline
 90
        1
 70
     0
 43
0.0
 10
5.176466770726114
 20
2.562209675839679
  0
LWPOLYLINE
  5
A5
330
7D
100
AcDbEntity
  8
Layer 1
 62
   250
420
  2301728
370
     0
100
AcDbPolyline
 90
        1
 70
     0
 43
0.0
 10
5.171185149899656
 20
2.098778486367804
  0
LWPOLYLINE
  5
A6
330
7D
100
AcDbEntity
  8
Layer 1
 62
   250
420
  2301728
370
     0
100
AcDbPolyline
 90
        1
 70
     0
 43
0.0
 10
5.221185149899661
 20
2.098778486367804
  0
LWPOLYLINE
  5
A7
330
7D
100
AcDbEntity
  8
Layer 1
 62
   250
420
  2301728
370
     0
100
AcDbPolyline
 90
        1
 70
     0
 43
0.0
 10
5.152093958078213
 20
2.337561891042102
  0
LWPOLYLINE
  5
A8
330
7D
100
AcDbEntity
  8
Layer 1
 62
   250
420
  2301728
370
     0
100
AcDbPolyline
 90
        1
 70
     0
 43
0.0
 10
5.152093958078213
 20
2.412070767877354
  0
LWPOLYLINE
  5
A9
330
7D
100
AcDbEntity
  8
Layer 1
 62
   250
420
  2301728
370
     0
100
AcDbPolyline
 90
        1
 70
     0
 43
0.0
 10
4.884742819111831
 20
2.528375886797284
  0
LWPOLYLINE
  5
AA
330
7D
100
AcDbEntity
  8
Layer 1
 62
   250
420
  2301728
370
     0
100
AcDbPolyline
 90
        1
 70
     0
 43
0.0
 10
5.033348150592372
 20
2.528375886797284
  0
LWPOLYLINE
  5
AB
330
7D
100
AcDbEntity
  8
Layer 1
 62
   250
420
  2301728
370
     0
100
AcDbPolyline
 90
        1
 70
     0
 43
0.0
 10
4.933348150592387
 20
2.263884060813236
  0
LWPOLYLINE
  5
AC
330
7D
100
AcDbEntity
  8
Layer 1
 62
   250
420
  2301728
370
     0
100
AcDbPolyline
 90
        1
 70
     0
 43
0.0
 10
5.033348150592372
 20
2.263884060813236
  0
ENDBLK
  5
80
330
7D
100
AcDbEntity
  8
0
100
AcDbBlockEnd
  0
BLOCK
  5
83
330
81
100
AcDbEntity
  8
0
100
AcDbBlockBegin
  2
Block_2
 70
     0
 10
0.0
 20
0.0
 30
0.0
  3
Block_2
  1

  0
INSERT
  5
86
330
81
100
AcDbEntity
  8
Layer 1
100
AcDbBlockReference
  2
Block_3
 10
0.0
 20
0.0
 30
0.0
  0
INSERT
  5
8E
330
81
100
AcDbEntity
  8
Layer 1
100
AcDbBlockReference
  2
Block_4
 10
0.0
 20
0.0
 30
0.0
  0
INSERT
  5
94
330
81
100
AcDbEntity
  8
Layer 1
100
AcDbBlockReference
  2
Block_5
 10
0.0
 20
0.0
 30
0.0
  0
ENDBLK
  5
84
330
81
100
AcDbEntity
  8
0
100
AcDbBlockEnd
  0
BLOCK
  5
87
330
85
100
AcDbEntity
  8
0
100
AcDbBlockBegin
  2
Block_3
 70
     0
 10
0.0
 20
0.0
 30
0.0
  3
Block_3
  1

  0
CIRCLE
  5
89
330
85
100
AcDbEntity
  8
Layer 1
 62
    18
420
    65793
370
     9
100
AcDbCircle
 10
5.03472879197863
 20
2.098778486367804
 30
0.0
 40
0.0359721713595889
  0
CIRCLE
  5
8A
330
85
100
AcDbEntity
  8
Layer 1
 62
    18
420
    65793
370
     9
100
AcDbCircle
 10
5.034728791978623
 20
2.098778486367804
 30
0.0
 40
0.0215278201633156
  0
CIRCLE
  5
8B
330
85
100
AcDbEntity
  8
Layer 1
 62
    18
420
    65793
370
     9
100
AcDbCircle
 10
5.13500658671058
 20
2.098778486367804
 30
0.0
 40
0.0359721713595825
  0
CIRCLE
  5
8C
330
85
100
AcDbEntity
  8
Layer 1
 62
    18
420
    65793
370
     9
100
AcDbCircle
 10
5.13500658671058
 20
2.098778486367804
 30
0.0
 40
0.0215278201633188
  0
ENDBLK
  5
88
330
85
100
AcDbEntity
  8
0
100
AcDbBlockEnd
  0
BLOCK
  5
8F
330
8D
100
AcDbEntity
  8
0
100
AcDbBlockBegin
  2
Block_4
 70
     0
 10
0.0
 20
0.0
 30
0.0
  3
Block_4
  1

  0
SPLINE
  5
91
330
8D
100
AcDbEntity
  8
Layer 1
 62
    18
420
    65793
370
     9
100
AcDbSpline
210
0.0
220
0.0
230
1.0
 70
     9
 71
     3
 72
    29
 73
    25
 74
     0
 42
0.0000000001
 43
0.0000000001
 40
0.0
 40
0.0
 40
0.0
 40
0.0
 40
1.0
 40
1.0
 40
1.0
 40
2.0
 40
2.0
 40
2.0
 40
3.0
 40
3.0
 40
3.0
 40
4.0
 40
4.0
 40
4.0
 40
5.0
 40
5.0
 40
5.0
 40
6.0
 40
6.0
 40
6.0
 40
7.0
 40
7.0
 40
7.0
 40
8.0
 40
8.0
 40
8.0
 40
8.0
 10
4.94284332682418
 20
2.337070750233035
 30
0.0
 10
4.94284332682418
 20
2.337070750233035
 30
0.0
 10
5.026192051865008
 20
2.337070750233035
 30
0.0
 10
5.026192051865008
 20
2.337070750233035
 30
0.0
 10
5.030790155385425
 20
2.337070750233035
 30
0.0
 10
5.034517689344586
 20
2.333343216273899
 30
0.0
 10
5.034517689344586
 20
2.328745112753406
 30
0.0
 10
5.034517689344586
 20
2.328745112753406
 30
0.0
 10
5.034517689344586
 20
2.245396387712604
 30
0.0
 10
5.034517689344586
 20
2.245396387712604
 30
0.0
 10
5.034517689344586
 20
2.240798284192111
 30
0.0
 10
5.030790155385425
 20
2.237070750232974
 30
0.0
 10
5.026192051865008
 20
2.237070750232974
 30
0.0
 10
5.026192051865008
 20
2.237070750232974
 30
0.0
 10
4.94284332682418
 20
2.237070750232974
 30
0.0
 10
4.94284332682418
 20
2.237070750232974
 30
0.0
 10
4.938245223303611
 20
2.237070750232974
 30
0.0
 10
4.934517689344602
 20
2.240798284192111
 30
0.0
 10
4.934517689344602
 20
2.245396387712604
 30
0.0
 10
4.934517689344602
 20
2.245396387712604
 30
0.0
 10
4.934517689344602
 20
2.328745112753406
 30
0.0
 10
4.934517689344602
 20
2.328745112753406
 30
0.0
 10
4.934517689344602
 20
2.333343216273899
 30
0.0
 10
4.938245223303611
 20
2.337070750233035
 30
0.0
 10
4.94284332682418
 20
2.337070750233035
 30
0.0
  0
SPLINE
  5
92
330
8D
100
AcDbEntity
  8
Layer 1
 62
    18
420
    65793
370
     9
100
AcDbSpline
210
0.0
220
0.0
230
1.0
 70
     9
 71
     3
 72
    29
 73
    25
 74
     0
 42
0.0000000001
 43
0.0000000001
 40
0.0
 40
0.0
 40
0.0
 40
0.0
 40
1.0
 40
1.0
 40
1.0
 40
2.0
 40
2.0
 40
2.0
 40
3.0
 40
3.0
 40
3.0
 40
4.0
 40
4.0
 40
4.0
 40
5.0
 40
5.0
 40
5.0
 40
6.0
 40
6.0
 40
6.0
 40
7.0
 40
7.0
 40
7.0
 40
8.0
 40
8.0
 40
8.0
 40
8.0
 10
5.143543329762223
 20
2.337070767877283
 30
0.0
 10
5.143543329762223
 20
2.337070767877283
 30
0.0
 10
5.226892048926957
 20
2.337070767877283
 30
0.0
 10
5.226892048926957
 20
2.337070767877283
 30
0.0
 10
5.231490154070014
 20
2.337070767877283
 30
0.0
 10
5.235217689344608
 20
2.33334323260279
 30
0.0
 10
5.235217689344608
 20
2.328745127459733
 30
0.0
 10
5.235217689344608
 20
2.328745127459733
 30
0.0
 10
5.235217689344608
 20
2.245396373006302
 30
0.0
 10
5.235217689344608
 20
2.245396373006302
 30
0.0
 10
5.235217689344608
 20
2.240798267863195
 30
0.0
 10
5.231490154070014
 20
2.237070732588727
 30
0.0
 10
5.226892048926957
 20
2.237070732588727
 30
0.0
 10
5.226892048926957
 20
2.237070732588727
 30
0.0
 10
5.143543329762223
 20
2.237070732588727
 30
0.0
 10
5.143543329762223
 20
2.237070732588727
 30
0.0
 10
5.13894522461904
 20
2.237070732588727
 30
0.0
 10
5.135217689344598
 20
2.240798267863195
 30
0.0
 10
5.135217689344598
 20
2.245396373006302
 30
0.0
 10
5.135217689344598
 20
2.245396373006302
 30
0.0
 10
5.135217689344598
 20
2.328745127459733
 30
0.0
 10
5.135217689344598
 20
2.328745127459733
 30
0.0
 10
5.135217689344598
 20
2.33334323260279
 30
0.0
 10
5.13894522461904
 20
2.337070767877283
 30
0.0
 10
5.143543329762223
 20
2.337070767877283
 30
0.0
  0
ENDBLK
  5
90
330
8D
100
AcDbEntity
  8
0
100
AcDbBlockEnd
  0
BLOCK
  5
95
330
93
100
AcDbEntity
  8
0
100
AcDbBlockBegin
  2
Block_5
 70
     0
 10
0.0
 20
0.0
 30
0.0
  3
Block_5
  1

  0
SPLINE
  5
97
330
93
100
AcDbEntity
  8
Layer 1
 62
    18
420
    65793
370
     9
100
AcDbSpline
210
0.0
220
0.0
230
1.0
 70
     9
 71
     3
 72
    29
 73
    25
 74
     0
 42
0.0000000001
 43
0.0000000001
 40
0.0
 40
0.0
 40
0.0
 40
0.0
 40
1.0
 40
1.0
 40
1.0
 40
2.0
 40
2.0
 40
2.0
 40
3.0
 40
3.0
 40
3.0
 40
4.0
 40
4.0
 40
4.0
 40
5.0
 40
5.0
 40
5.0
 40
6.0
 40
6.0
 40
6.0
 40
7.0
 40
7.0
 40
7.0
 40
8.0
 40
8.0
 40
8.0
 40
8.0
 10
4.896951066123063
 20
2.562209675839679
 30
0.0
 10
4.896951066123063
 20
2.562209675839679
 30
0.0
 10
5.022089931699889
 20
2.562209675839679
 30
0.0
 10
5.022089931699889
 20
2.562209675839679
 30
0.0
 10
5.028993474112515
 20
2.562209675839679
 30
0.0
 10
5.034589952892651
 20
2.556613197059568
 30
0.0
 10
5.034589952892651
 20
2.549709654646916
 30
0.0
 10
5.034589952892651
 20
2.549709654646916
 30
0.0
 10
5.034589952892651
 20
2.424570789070066
 30
0.0
 10
5.034589952892651
 20
2.424570789070066
 30
0.0
 10
5.034589952892651
 20
2.417667246657414
 30
0.0
 10
5.028993474112515
 20
2.412070767877303
 30
0.0
 10
5.022089931699889
 20
2.412070767877303
 30
0.0
 10
5.022089931699889
 20
2.412070767877303
 30
0.0
 10
4.896951066123063
 20
2.412070767877303
 30
0.0
 10
4.896951066123063
 20
2.412070767877303
 30
0.0
 10
4.890047523710436
 20
2.412070767877303
 30
0.0
 10
4.884451044930301
 20
2.417667246657414
 30
0.0
 10
4.884451044930301
 20
2.424570789070066
 30
0.0
 10
4.884451044930301
 20
2.424570789070066
 30
0.0
 10
4.884451044930301
 20
2.549709654646916
 30
0.0
 10
4.884451044930301
 20
2.549709654646916
 30
0.0
 10
4.884451044930301
 20
2.556613197059568
 30
0.0
 10
4.890047523710436
 20
2.562209675839679
 30
0.0
 10
4.896951066123063
 20
2.562209675839679
 30
0.0
  0
SPLINE
  5
98
330
93
100
AcDbEntity
  8
Layer 1
 62
    18
420
    65793
370
     9
100
AcDbSpline
210
0.0
220
0.0
230
1.0
 70
     9
 71
     3
 72
    29
 73
    25
 74
     0
 42
0.0000000001
 43
0.0000000001
 40
0.0
 40
0.0
 40
0.0
 40
0.0
 40
1.0
 40
1.0
 40
1.0
 40
2.0
 40
2.0
 40
2.0
 40
3.0
 40
3.0
 40
3.0
 40
4.0
 40
4.0
 40
4.0
 40
5.0
 40
5.0
 40
5.0
 40
6.0
 40
6.0
 40
6.0
 40
7.0
 40
7.0
 40
7.0
 40
8.0
 40
8.0
 40
8.0
 40
8.0
 10
5.147645499971127
 20
2.562209675839679
 30
0.0
 10
5.147645499971127
 20
2.562209675839679
 30
0.0
 10
5.272784312566121
 20
2.562209675839679
 30
0.0
 10
5.272784312566121
 20
2.562209675839679
 30
0.0
 10
5.279687854978773
 20
2.562209675839679
 30
0.0
 10
5.285284333758909
 20
2.556613197059568
 30
0.0
 10
5.285284333758909
 20
2.549709654646916
 30
0.0
 10
5.285284333758909
 20
2.549709654646916
 30
0.0
 10
5.285284333758909
 20
2.424570789070066
 30
0.0
 10
5.285284333758909
 20
2.424570789070066
 30
0.0
 10
5.285284333758909
 20
2.417667246657414
 30
0.0
 10
5.279687854978773
 20
2.412070767877303
 30
0.0
 10
5.272784312566121
 20
2.412070767877303
 30
0.0
 10
5.272784312566121
 20
2.412070767877303
 30
0.0
 10
5.147645499971127
 20
2.412070767877303
 30
0.0
 10
5.147645499971127
 20
2.412070767877303
 30
0.0
 10
5.1407419575585
 20
2.412070767877303
 30
0.0
 10
5.135145478778364
 20
2.417667246657414
 30
0.0
 10
5.135145478778364
 20
2.424570789070066
 30
0.0
 10
5.135145478778364
 20
2.424570789070066
 30
0.0
 10
5.135145478778364
 20
2.549709654646916
 30
0.0
 10
5.135145478778364
 20
2.549709654646916
 30
0.0
 10
5.135145478778364
 20
2.556613197059568
 30
0.0
 10
5.1407419575585
 20
2.562209675839679
 30
0.0
 10
5.147645499971127
 20
2.562209675839679
 30
0.0
  0
ENDBLK
  5
96
330
93
100
AcDbEntity
  8
0
100
AcDbBlockEnd
  0
BLOCK
  5
B0
330
AE
100
AcDbEntity
  8
0
100
AcDbBlockBegin
  2
Block_6
 70
     0
 10
0.0
 20
0.0
 30
0.0
  3
Block_6
  1

  0
CIRCLE
  5
B2
330
AE
100
AcDbEntity
  8
Layer 1
 62
    18
420
    65793
370
     9
100
AcDbCircle
 10
7.606971482696646
 20
2.066874518771359
 30
0.0
 40
0.0360009557247155
  0
CIRCLE
  5
B3
330
AE
100
AcDbEntity
  8
Layer 1
 62
    18
420
    65793
370
     9
100
AcDbCircle
 10
7.606971509208833
 20
2.066874518771366
 30
0.0
 40
0.0215450357914063
  0
CIRCLE
  5
B4
330
AE
100
AcDbEntity
  8
Layer 1
 62
    18
420
    65793
370
     9
100
AcDbCircle
 10
7.707051559581789
 20
2.066874486065715
 30
0.0
 40
0.0360009490966592
  0
CIRCLE
  5
B5
330
AE
100
AcDbEntity
  8
Layer 1
 62
    18
420
    65793
370
     9
100
AcDbCircle
 10
7.707051559581814
 20
2.066874486065709
 30
0.0
 40
0.0215450424193994
  0
CIRCLE
  5
B6
330
AE
100
AcDbEntity
  8
Layer 1
 62
    18
420
    65793
370
     9
100
AcDbCircle
 10
7.807409576549654
 20
2.066874453269216
 30
0.0
 40
0.0360009490966623
  0
CIRCLE
  5
B7
330
AE
100
AcDbEntity
  8
Layer 1
 62
    18
420
    65793
370
     9
100
AcDbCircle
 10
7.807409576549641
 20
2.066874453269216
 30
0.0
 40
0.0215450424194436
  0
CIRCLE
  5
B8
330
AE
100
AcDbEntity
  8
Layer 1
 62
    18
420
    65793
370
     9
100
AcDbCircle
 10
7.907350504436483
 20
2.066874420609034
 30
0.0
 40
0.0360009490967066
  0
CIRCLE
  5
B9
330
AE
100
AcDbEntity
  8
Layer 1
 62
    18
420
    65793
370
     9
100
AcDbCircle
 10
7.907350504436496
 20
2.066874420609034
 30
0.0
 40
0.0215450424194752
  0
SPLINE
  5
BA
330
AE
100
AcDbEntity
  8
Layer 1
 62
    18
420
    65793
370
     9
100
AcDbSpline
210
0.0
220
0.0
230
1.0
 70
     9
 71
     3
 72
    29
 73
    25
 74
     0
 42
0.0000000001
 43
0.0000000001
 40
0.0
 40
0.0
 40
0.0
 40
0.0
 40
1.0
 40
1.0
 40
1.0
 40
2.0
 40
2.0
 40
2.0
 40
3.0
 40
3.0
 40
3.0
 40
4.0
 40
4.0
 40
4.0
 40
5.0
 40
5.0
 40
5.0
 40
6.0
 40
6.0
 40
6.0
 40
7.0
 40
7.0
 40
7.0
 40
8.0
 40
8.0
 40
8.0
 40
8.0
 10
7.411460406371664
 20
2.479058200536516
 30
0.0
 10
7.411460406371664
 20
2.479058200536516
 30
0.0
 10
7.494875810392411
 20
2.479058173276787
 30
0.0
 10
7.494875810392411
 20
2.479058173276787
 30
0.0
 10
7.499477592395755
 20
2.479058171772963
 30
0.0
 10
7.503208107163041
 20
2.475327654567573
 30
0.0
 10
7.503208105659192
 20
2.470725872564255
 30
0.0
 10
7.503208105659192
 20
2.470725872564255
 30
0.0
 10
7.503208078399463
 20
2.387310468543432
 30
0.0
 10
7.503208078399463
 20
2.387310468543432
 30
0.0
 10
7.503208076895614
 20
2.382708686540114
 30
0.0
 10
7.499477559690123
 20
2.378978171772953
 30
0.0
 10
7.494875777686779
 20
2.378978173276777
 30
0.0
 10
7.494875777686779
 20
2.378978173276777
 30
0.0
 10
7.411460373666032
 20
2.378978200536506
 30
0.0
 10
7.411460373666032
 20
2.378978200536506
 30
0.0
 10
7.406858591662689
 20
2.37897820204033
 30
0.0
 10
7.403128076895452
 20
2.382708719245745
 30
0.0
 10
7.403128078399301
 20
2.387310501249064
 30
0.0
 10
7.403128078399301
 20
2.387310501249064
 30
0.0
 10
7.40312810565903
 20
2.470725905269887
 30
0.0
 10
7.40312810565903
 20
2.470725905269887
 30
0.0
 10
7.40312810716288
 20
2.475327687273205
 30
0.0
 10
7.40685862436832
 20
2.479058202040341
 30
0.0
 10
7.411460406371664
 20
2.479058200536516
 30
0.0
  0
SPLINE
  5
BB
330
AE
100
AcDbEntity
  8
Layer 1
 62
    18
420
    65793
370
     9
100
AcDbSpline
210
0.0
220
0.0
230
1.0
 70
     9
 71
     3
 72
    29
 73
    25
 74
     0
 42
0.0000000001
 43
0.0000000001
 40
0.0
 40
0.0
 40
0.0
 40
0.0
 40
1.0
 40
1.0
 40
1.0
 40
2.0
 40
2.0
 40
2.0
 40
3.0
 40
3.0
 40
3.0
 40
4.0
 40
4.0
 40
4.0
 40
5.0
 40
5.0
 40
5.0
 40
6.0
 40
6.0
 40
6.0
 40
7.0
 40
7.0
 40
7.0
 40
8.0
 40
8.0
 40
8.0
 40
8.0
 10
7.614122406371658
 20
2.479058134307592
 30
0.0
 10
7.614122406371658
 20
2.479058134307592
 30
0.0
 10
7.697537810392405
 20
2.479058107047863
 30
0.0
 10
7.697537810392405
 20
2.479058107047863
 30
0.0
 10
7.702139592395749
 20
2.479058105544039
 30
0.0
 10
7.705870107162986
 20
2.475327588338675
 30
0.0
 10
7.705870105659136
 20
2.470725806335331
 30
0.0
 10
7.705870105659136
 20
2.470725806335331
 30
0.0
 10
7.705870078399406
 20
2.387310402314533
 30
0.0
 10
7.705870078399406
 20
2.387310402314533
 30
0.0
 10
7.705870076895557
 20
2.38270862031119
 30
0.0
 10
7.702139559690117
 20
2.378978105544029
 30
0.0
 10
7.697537777686774
 20
2.378978107047878
 30
0.0
 10
7.697537777686774
 20
2.378978107047878
 30
0.0
 10
7.614122373666027
 20
2.378978134307607
 30
0.0
 10
7.614122373666027
 20
2.378978134307607
 30
0.0
 10
7.609520591662683
 20
2.378978135811431
 30
0.0
 10
7.605790076895446
 20
2.382708653016846
 30
0.0
 10
7.605790078399295
 20
2.387310435020165
 30
0.0
 10
7.605790078399295
 20
2.387310435020165
 30
0.0
 10
7.605790105659025
 20
2.470725839040963
 30
0.0
 10
7.605790105659025
 20
2.470725839040963
 30
0.0
 10
7.605790107162874
 20
2.475327621044306
 30
0.0
 10
7.609520624368315
 20
2.479058135811442
 30
0.0
 10
7.614122406371658
 20
2.479058134307592
 30
0.0
  0
SPLINE
  5
BC
330
AE
100
AcDbEntity
  8
Layer 1
 62
    18
420
    65793
370
     9
100
AcDbSpline
210
0.0
220
0.0
230
1.0
 70
     9
 71
     3
 72
    29
 73
    25
 74
     0
 42
0.0000000001
 43
0.0000000001
 40
0.0
 40
0.0
 40
0.0
 40
0.0
 40
1.0
 40
1.0
 40
1.0
 40
2.0
 40
2.0
 40
2.0
 40
3.0
 40
3.0
 40
3.0
 40
4.0
 40
4.0
 40
4.0
 40
5.0
 40
5.0
 40
5.0
 40
6.0
 40
6.0
 40
6.0
 40
7.0
 40
7.0
 40
7.0
 40
8.0
 40
8.0
 40
8.0
 40
8.0
 10
7.816784409311897
 20
2.479058085737114
 30
0.0
 10
7.816784409311897
 20
2.479058085737114
 30
0.0
 10
7.900199807452104
 20
2.47905805847741
 30
0.0
 10
7.900199807452104
 20
2.47905805847741
 30
0.0
 10
7.9048015910793
 20
2.479058056973561
 30
0.0
 10
7.908532107162777
 20
2.475327538451728
 30
0.0
 10
7.908532105658978
 20
2.470725754824482
 30
0.0
 10
7.908532105658978
 20
2.470725754824482
 30
0.0
 10
7.908532078399199
 20
2.387310321367534
 30
0.0
 10
7.908532078399199
 20
2.387310321367534
 30
0.0
 10
7.9085320768954
 20
2.382708537740338
 30
0.0
 10
7.904801558373618
 20
2.37897802165676
 30
0.0
 10
7.900199774746422
 20
2.378978023160609
 30
0.0
 10
7.900199774746422
 20
2.378978023160609
 30
0.0
 10
7.816784376606265
 20
2.378978050420338
 30
0.0
 10
7.816784376606265
 20
2.378978050420338
 30
0.0
 10
7.812182592979119
 20
2.378978051924162
 30
0.0
 10
7.808452076895541
 20
2.38270857044597
 30
0.0
 10
7.80845207839939
 20
2.387310354073166
 30
0.0
 10
7.80845207839939
 20
2.387310354073166
 30
0.0
 10
7.80845210565912
 20
2.470725787530113
 30
0.0
 10
7.80845210565912
 20
2.470725787530113
 30
0.0
 10
7.80845210716297
 20
2.47532757115736
 30
0.0
 10
7.812182625684751
 20
2.479058087240963
 30
0.0
 10
7.816784409311897
 20
2.479058085737114
 30
0.0
  0
SPLINE
  5
BD
330
AE
100
AcDbEntity
  8
Layer 1
 62
    18
420
    65793
370
     9
100
AcDbSpline
210
0.0
220
0.0
230
1.0
 70
     9
 71
     3
 72
    29
 73
    25
 74
     0
 42
0.0000000001
 43
0.0000000001
 40
0.0
 40
0.0
 40
0.0
 40
0.0
 40
1.0
 40
1.0
 40
1.0
 40
2.0
 40
2.0
 40
2.0
 40
3.0
 40
3.0
 40
3.0
 40
4.0
 40
4.0
 40
4.0
 40
5.0
 40
5.0
 40
5.0
 40
6.0
 40
6.0
 40
6.0
 40
7.0
 40
7.0
 40
7.0
 40
8.0
 40
8.0
 40
8.0
 40
8.0
 10
8.019446409311942
 20
2.479058019508215
 30
0.0
 10
8.019446409311942
 20
2.479058019508215
 30
0.0
 10
8.102861807452148
 20
2.479057992248486
 30
0.0
 10
8.102861807452148
 20
2.479057992248486
 30
0.0
 10
8.107463591079294
 20
2.479057990744662
 30
0.0
 10
8.111194107162873
 20
2.475327472222829
 30
0.0
 10
8.111194105659023
 20
2.470725688595633
 30
0.0
 10
8.111194105659023
 20
2.470725688595633
 30
0.0
 10
8.111194078399295
 20
2.387310255138635
 30
0.0
 10
8.111194078399295
 20
2.387310255138635
 30
0.0
 10
8.111194076895445
 20
2.382708471511439
 30
0.0
 10
8.107463558373662
 20
2.37897795542781
 30
0.0
 10
8.102861774746518
 20
2.378977956931635
 30
0.0
 10
8.102861774746518
 20
2.378977956931635
 30
0.0
 10
8.01944637660631
 20
2.378977984191363
 30
0.0
 10
8.01944637660631
 20
2.378977984191363
 30
0.0
 10
8.014844592979114
 20
2.378977985695188
 30
0.0
 10
8.011114076895434
 20
2.382708504217071
 30
0.0
 10
8.011114078399284
 20
2.387310287844267
 30
0.0
 10
8.011114078399284
 20
2.387310287844267
 30
0.0
 10
8.011114105659013
 20
2.470725721301265
 30
0.0
 10
8.011114105659013
 20
2.470725721301265
 30
0.0
 10
8.011114107162862
 20
2.475327504928461
 30
0.0
 10
8.014844625684746
 20
2.479058021012039
 30
0.0
 10
8.019446409311942
 20
2.479058019508215
 30
0.0
  0
SPLINE
  5
BE
330
AE
100
AcDbEntity
  8
Layer 1
 62
    18
420
    65793
370
     9
100
AcDbSpline
210
0.0
220
0.0
230
1.0
 70
     9
 71
     3
 72
    29
 73
    25
 74
     0
 42
0.0000000001
 43
0.0000000001
 40
0.0
 40
0.0
 40
0.0
 40
0.0
 40
1.0
 40
1.0
 40
1.0
 40
2.0
 40
2.0
 40
2.0
 40
3.0
 40
3.0
 40
3.0
 40
4.0
 40
4.0
 40
4.0
 40
5.0
 40
5.0
 40
5.0
 40
6.0
 40
6.0
 40
6.0
 40
7.0
 40
7.0
 40
7.0
 40
8.0
 40
8.0
 40
8.0
 40
8.0
 10
7.411460348675998
 20
2.302507995423929
 30
0.0
 10
7.411460348675998
 20
2.302507995423929
 30
0.0
 10
7.494875752696745
 20
2.3025079681642
 30
0.0
 10
7.494875752696745
 20
2.3025079681642
 30
0.0
 10
7.499477534700089
 20
2.30250796666035
 30
0.0
 10
7.503208049467325
 20
2.298777449455011
 30
0.0
 10
7.503208047963475
 20
2.294175667451668
 30
0.0
 10
7.503208047963475
 20
2.294175667451668
 30
0.0
 10
7.503208020703747
 20
2.21076026343087
 30
0.0
 10
7.503208020703747
 20
2.21076026343087
 30
0.0
 10
7.503208019199897
 20
2.206158481427577
 30
0.0
 10
7.499477501994457
 20
2.20242796666034
 30
0.0
 10
7.494875719991114
 20
2.20242796816419
 30
0.0
 10
7.494875719991114
 20
2.20242796816419
 30
0.0
 10
7.411460315970366
 20
2.202427995423918
 30
0.0
 10
7.411460315970366
 20
2.202427995423918
 30
0.0
 10
7.406858533967023
 20
2.202427996927743
 30
0.0
 10
7.403128019199735
 20
2.206158514133208
 30
0.0
 10
7.403128020703585
 20
2.210760296136502
 30
0.0
 10
7.403128020703585
 20
2.210760296136502
 30
0.0
 10
7.403128047963313
 20
2.294175700157299
 30
0.0
 10
7.403128047963313
 20
2.294175700157299
 30
0.0
 10
7.403128049467163
 20
2.298777482160643
 30
0.0
 10
7.406858566672654
 20
2.302507996927778
 30
0.0
 10
7.411460348675998
 20
2.302507995423929
 30
0.0
  0
SPLINE
  5
BF
330
AE
100
AcDbEntity
  8
Layer 1
 62
    18
420
    65793
370
     9
100
AcDbSpline
210
0.0
220
0.0
230
1.0
 70
     9
 71
     3
 72
    29
 73
    25
 74
     0
 42
0.0000000001
 43
0.0000000001
 40
0.0
 40
0.0
 40
0.0
 40
0.0
 40
1.0
 40
1.0
 40
1.0
 40
2.0
 40
2.0
 40
2.0
 40
3.0
 40
3.0
 40
3.0
 40
4.0
 40
4.0
 40
4.0
 40
5.0
 40
5.0
 40
5.0
 40
6.0
 40
6.0
 40
6.0
 40
7.0
 40
7.0
 40
7.0
 40
8.0
 40
8.0
 40
8.0
 40
8.0
 10
7.614122348675941
 20
2.30250792919503
 30
0.0
 10
7.614122348675941
 20
2.30250792919503
 30
0.0
 10
7.697537752696689
 20
2.302507901935301
 30
0.0
 10
7.697537752696689
 20
2.302507901935301
 30
0.0
 10
7.702139534700032
 20
2.302507900431451
 30
0.0
 10
7.705870049467269
 20
2.298777383226087
 30
0.0
 10
7.705870047963419
 20
2.294175601222768
 30
0.0
 10
7.705870047963419
 20
2.294175601222768
 30
0.0
 10
7.705870020703691
 20
2.210760197201946
 30
0.0
 10
7.705870020703691
 20
2.210760197201946
 30
0.0
 10
7.705870019199892
 20
2.206158415198678
 30
0.0
 10
7.702139501994401
 20
2.202427900431441
 30
0.0
 10
7.697537719991057
 20
2.202427901935266
 30
0.0
 10
7.697537719991057
 20
2.202427901935266
 30
0.0
 10
7.61412231597031
 20
2.202427929194994
 30
0.0
 10
7.61412231597031
 20
2.202427929194994
 30
0.0
 10
7.609520533966966
 20
2.202427930698819
 30
0.0
 10
7.60579001919978
 20
2.206158447904309
 30
0.0
 10
7.60579002070358
 20
2.210760229907577
 30
0.0
 10
7.60579002070358
 20
2.210760229907577
 30
0.0
 10
7.605790047963308
 20
2.2941756339284
 30
0.0
 10
7.605790047963308
 20
2.2941756339284
 30
0.0
 10
7.605790049467158
 20
2.298777415931719
 30
0.0
 10
7.609520566672598
 20
2.30250793069888
 30
0.0
 10
7.614122348675941
 20
2.30250792919503
 30
0.0
  0
SPLINE
  5
C0
330
AE
100
AcDbEntity
  8
Layer 1
 62
    18
420
    65793
370
     9
100
AcDbSpline
210
0.0
220
0.0
230
1.0
 70
     9
 71
     3
 72
    29
 73
    25
 74
     0
 42
0.0000000001
 43
0.0000000001
 40
0.0
 40
0.0
 40
0.0
 40
0.0
 40
1.0
 40
1.0
 40
1.0
 40
2.0
 40
2.0
 40
2.0
 40
3.0
 40
3.0
 40
3.0
 40
4.0
 40
4.0
 40
4.0
 40
5.0
 40
5.0
 40
5.0
 40
6.0
 40
6.0
 40
6.0
 40
7.0
 40
7.0
 40
7.0
 40
8.0
 40
8.0
 40
8.0
 40
8.0
 10
7.81678435161618
 20
2.302507880624526
 30
0.0
 10
7.81678435161618
 20
2.302507880624526
 30
0.0
 10
7.900199749756388
 20
2.302507853364798
 30
0.0
 10
7.900199749756388
 20
2.302507853364798
 30
0.0
 10
7.904801533383583
 20
2.302507851860948
 30
0.0
 10
7.908532049467112
 20
2.298777333339166
 30
0.0
 10
7.908532047963262
 20
2.29417554971192
 30
0.0
 10
7.908532047963262
 20
2.29417554971192
 30
0.0
 10
7.908532020703533
 20
2.210760116254947
 30
0.0
 10
7.908532020703533
 20
2.210760116254947
 30
0.0
 10
7.908532019199683
 20
2.206158332627751
 30
0.0
 10
7.904801500677952
 20
2.202427816544198
 30
0.0
 10
7.900199717050756
 20
2.202427818048022
 30
0.0
 10
7.900199717050756
 20
2.202427818048022
 30
0.0
 10
7.816784318910549
 20
2.202427845307751
 30
0.0
 10
7.816784318910549
 20
2.202427845307751
 30
0.0
 10
7.812182535283404
 20
2.202427846811575
 30
0.0
 10
7.808452019199825
 20
2.206158365333382
 30
0.0
 10
7.808452020703675
 20
2.210760148960578
 30
0.0
 10
7.808452020703675
 20
2.210760148960578
 30
0.0
 10
7.808452047963403
 20
2.294175582417551
 30
0.0
 10
7.808452047963403
 20
2.294175582417551
 30
0.0
 10
7.808452049467253
 20
2.298777366044797
 30
0.0
 10
7.812182567989035
 20
2.302507882128351
 30
0.0
 10
7.81678435161618
 20
2.302507880624526
 30
0.0
  0
SPLINE
  5
C1
330
AE
100
AcDbEntity
  8
Layer 1
 62
    18
420
    65793
370
     9
100
AcDbSpline
210
0.0
220
0.0
230
1.0
 70
     9
 71
     3
 72
    29
 73
    25
 74
     0
 42
0.0000000001
 43
0.0000000001
 40
0.0
 40
0.0
 40
0.0
 40
0.0
 40
1.0
 40
1.0
 40
1.0
 40
2.0
 40
2.0
 40
2.0
 40
3.0
 40
3.0
 40
3.0
 40
4.0
 40
4.0
 40
4.0
 40
5.0
 40
5.0
 40
5.0
 40
6.0
 40
6.0
 40
6.0
 40
7.0
 40
7.0
 40
7.0
 40
8.0
 40
8.0
 40
8.0
 40
8.0
 10
8.019446351616275
 20
2.302507814395602
 30
0.0
 10
8.019446351616275
 20
2.302507814395602
 30
0.0
 10
8.102861749756431
 20
2.302507787135898
 30
0.0
 10
8.102861749756431
 20
2.302507787135898
 30
0.0
 10
8.107463533383578
 20
2.302507785632049
 30
0.0
 10
8.111194049467156
 20
2.298777267110267
 30
0.0
 10
8.111194047963357
 20
2.294175483483071
 30
0.0
 10
8.111194047963357
 20
2.294175483483071
 30
0.0
 10
8.111194020703578
 20
2.210760050026022
 30
0.0
 10
8.111194020703578
 20
2.210760050026022
 30
0.0
 10
8.111194019199778
 20
2.206158266398827
 30
0.0
 10
8.107463500677946
 20
2.202427750315223
 30
0.0
 10
8.102861717050801
 20
2.202427751819047
 30
0.0
 10
8.102861717050801
 20
2.202427751819047
 30
0.0
 10
8.019446318910594
 20
2.202427779078776
 30
0.0
 10
8.019446318910594
 20
2.202427779078776
 30
0.0
 10
8.014844535283398
 20
2.202427780582625
 30
0.0
 10
8.011114019199769
 20
2.206158299104458
 30
0.0
 10
8.011114020703567
 20
2.210760082731654
 30
0.0
 10
8.011114020703567
 20
2.210760082731654
 30
0.0
 10
8.011114047963348
 20
2.294175516188702
 30
0.0
 10
8.011114047963348
 20
2.294175516188702
 30
0.0
 10
8.011114049467146
 20
2.298777299815899
 30
0.0
 10
8.014844567989079
 20
2.302507815899452
 30
0.0
 10
8.019446351616275
 20
2.302507814395602
 30
0.0
  0
SPLINE
  5
C2
330
AE
100
AcDbEntity
  8
Layer 1
 62
   215
420
  9981598
370
     9
100
AcDbSpline
210
0.0
220
0.0
230
1.0
 70
     9
 71
     3
 72
    53
 73
    49
 74
     0
 42
0.0000000001
 43
0.0000000001
 40
0.0
 40
0.0
 40
0.0
 40
0.0
 40
1.0
 40
1.0
 40
1.0
 40
2.0
 40
2.0
 40
2.0
 40
3.0
 40
3.0
 40
3.0
 40
4.0
 40
4.0
 40
4.0
 40
5.0
 40
5.0
 40
5.0
 40
6.0
 40
6.0
 40
6.0
 40
7.0
 40
7.0
 40
7.0
 40
8.0
 40
8.0
 40
8.0
 40
9.0
 40
9.0
 40
9.0
 40
10.0
 40
10.0
 40
10.0
 40
11.0
 40
11.0
 40
11.0
 40
12.0
 40
12.0
 40
12.0
 40
13.0
 40
13.0
 40
13.0
 40
14.0
 40
14.0
 40
14.0
 40
15.0
 40
15.0
 40
15.0
 40
16.0
 40
16.0
 40
16.0
 40
16.0
 10
7.373104110310956
 20
2.484961071353697
 30
0.0
 10
7.373104110310956
 20
2.484961071353697
 30
0.0
 10
7.37310401924113
 20
2.206285176461493
 30
0.0
 10
7.37310401924113
 20
2.206285176461493
 30
0.0
 10
7.373104005900964
 20
2.165464050933185
 30
0.0
 10
7.406196055719722
 20
2.13237197948581
 30
0.0
 10
7.447017181247979
 20
2.132371966145695
 30
0.0
 10
7.447017181247979
 20
2.132371966145695
 30
0.0
 10
7.447017329074469
 20
2.132371966145645
 30
0.0
 10
7.447017329074469
 20
2.132371966145645
 30
0.0
 10
7.487838454602928
 20
2.13237195280548
 30
0.0
 10
7.520930504421484
 20
2.09927988135818
 30
0.0
 10
7.520930491081369
 20
2.058458755829873
 30
0.0
 10
7.520930491081369
 20
2.058458755829873
 30
0.0
 10
7.520930489868305
 20
2.054746783881417
 30
0.0
 10
7.520930489868305
 20
2.054746783881417
 30
0.0
 10
7.520930476528191
 20
2.013925658353135
 30
0.0
 10
7.554022526346898
 20
1.980833586905785
 30
0.0
 10
7.594843651875306
 20
1.98083357356567
 30
0.0
 10
7.594843651875306
 20
1.98083357356567
 30
0.0
 10
7.919478239254076
 20
1.980833467476751
 30
0.0
 10
7.919478239254076
 20
1.980833467476751
 30
0.0
 10
7.960299364782486
 20
1.980833454136586
 30
0.0
 10
7.993391436229785
 20
2.013925503955293
 30
0.0
 10
7.993391449569899
 20
2.0547466294836
 30
0.0
 10
7.993391449569899
 20
2.0547466294836
 30
0.0
 10
7.993391450782963
 20
2.058458601432031
 30
0.0
 10
7.993391450782963
 20
2.058458601432031
 30
0.0
 10
7.993391464123128
 20
2.099279726960339
 30
0.0
 10
8.026483535570479
 20
2.132371776779046
 30
0.0
 10
8.067304661098786
 20
2.132371763438881
 30
0.0
 10
8.067304661098786
 20
2.132371763438881
 30
0.0
 10
8.067304808925275
 20
2.132371763438855
 30
0.0
 10
8.067304808925275
 20
2.132371763438855
 30
0.0
 10
8.108125934453584
 20
2.132371750098716
 30
0.0
 10
8.141218005900883
 20
2.165463799917448
 30
0.0
 10
8.141218019241048
 20
2.206284925445755
 30
0.0
 10
8.141218019241048
 20
2.206284925445755
 30
0.0
 10
8.141218110310875
 20
2.48496082033796
 30
0.0
 10
8.141218110310875
 20
2.48496082033796
 30
0.0
 10
8.141218114664372
 20
2.498282559056999
 30
0.0
 10
8.130418715195219
 20
2.509081965584591
 30
0.0
 10
8.117096976476128
 20
2.509081969938089
 30
0.0
 10
8.117096976476128
 20
2.509081969938089
 30
0.0
 10
7.397225259911136
 20
2.509082205188494
 30
0.0
 10
7.397225259911136
 20
2.509082205188494
 30
0.0
 10
7.383903521192046
 20
2.509082209541942
 30
0.0
 10
7.373104114664455
 20
2.498282810072737
 30
0.0
 10
7.373104110310956
 20
2.484961071353697
 30
0.0
  0
LWPOLYLINE
  5
C3
330
AE
100
AcDbEntity
  8
Layer 1
 62
    93
420
  7454542
370
     9
100
AcDbPolyline
 90
        1
 70
     0
 43
0.0
 10
8.061065983695369
 20
2.4290876752247
  0
ENDBLK
  5
B1
330
AE
100
AcDbEntity
  8
0
100
AcDbBlockEnd
  0
BLOCK
  5
C7
330
C5
100
AcDbEntity
  8
0
100
AcDbBlockBegin
  2
Block_7
 70
     0
 10
0.0
 20
0.0
 30
0.0
  3
Block_7
  1

  0
INSERT
  5
CA
330
C5
100
AcDbEntity
  8
Layer 1
100
AcDbBlockReference
  2
Block_8
 10
0.0
 20
0.0
 30
0.0
  0
SPLINE
  5
D1
330
C5
100
AcDbEntity
  8
Layer 1
 62
    93
420
  7454542
370
    20
100
AcDbSpline
210
0.0
220
0.0
230
1.0
 70
     9
 71
     3
 72
    53
 73
    49
 74
     0
 42
0.0000000001
 43
0.0000000001
 40
0.0
 40
0.0
 40
0.0
 40
0.0
 40
1.0
 40
1.0
 40
1.0
 40
2.0
 40
2.0
 40
2.0
 40
3.0
 40
3.0
 40
3.0
 40
4.0
 40
4.0
 40
4.0
 40
5.0
 40
5.0
 40
5.0
 40
6.0
 40
6.0
 40
6.0
 40
7.0
 40
7.0
 40
7.0
 40
8.0
 40
8.0
 40
8.0
 40
9.0
 40
9.0
 40
9.0
 40
10.0
 40
10.0
 40
10.0
 40
11.0
 40
11.0
 40
11.0
 40
12.0
 40
12.0
 40
12.0
 40
13.0
 40
13.0
 40
13.0
 40
14.0
 40
14.0
 40
14.0
 40
15.0
 40
15.0
 40
15.0
 40
16.0
 40
16.0
 40
16.0
 40
16.0
 10
2.347453868030432
 20
1.972506641669294
 30
0.0
 10
2.347453868030432
 20
1.972506641669294
 30
0.0
 10
3.719454147950866
 20
1.972506193306584
 30
0.0
 10
3.719454147950866
 20
1.972506193306584
 30
0.0
 10
3.838121951046976
 20
1.972506154526538
 30
0.0
 10
3.934321181251978
 20
1.876306861446576
 30
0.0
 10
3.934321142471958
 20
1.757639058350554
 30
0.0
 10
3.934321142471958
 20
1.757639058350554
 30
0.0
 10
3.934320956111971
 20
1.187373187827688
 30
0.0
 10
3.934320956111971
 20
1.187373187827688
 30
0.0
 10
3.934320917331976
 20
1.068705384731704
 30
0.0
 10
3.838121624251963
 20
0.9725061545266019
 30
0.0
 10
3.719453821156005
 20
0.9725061933066221
 30
0.0
 10
3.719453821156005
 20
0.9725061933066221
 30
0.0
 10
2.34745438894615
 20
0.9725066416690676
 30
0.0
 10
2.34745438894615
 20
0.9725066416690676
 30
0.0
 10
1.507367769664483
 20
0.972506916205096
 30
0.0
 10
0.8263427840122529
 20
0.2914823756637537
 30
0.0
 10
0.826342509476275
 20
-0.5486042436178625
 30
0.0
 10
0.826342509476275
 20
-0.5486042436178625
 30
0.0
 10
0.8263412572619648
 20
-4.38040915491322
 30
0.0
 10
0.8263412572619648
 20
-4.38040915491322
 30
0.0
 10
0.8263408022422456
 20
-5.772780055848063
 30
0.0
 10
-0.3023992003571973
 20
-6.901519320714719
 30
0.0
 10
-1.694770101292066
 20
-6.901518865694974
 30
0.0
 10
-1.694770101292066
 20
-6.901518865694974
 30
0.0
 10
-3.205783645064545
 20
-6.90151837190347
 30
0.0
 10
-3.205783645064545
 20
-6.90151837190347
 30
0.0
 10
-3.324451448160655
 20
-6.901518333123425
 30
0.0
 10
-3.420650678365657
 20
-6.805319040043437
 30
0.0
 10
-3.420650639585662
 20
-6.686651236947454
 30
0.0
 10
-3.420650639585662
 20
-6.686651236947454
 30
0.0
 10
-3.420650453225675
 20
-6.116385366424613
 30
0.0
 10
-3.420650453225675
 20
-6.116385366424613
 30
0.0
 10
-3.420650414445655
 20
-5.997717563328579
 30
0.0
 10
-3.324451121365667
 20
-5.901518333123476
 30
0.0
 10
-3.205783318269684
 20
-5.901518371903521
 30
0.0
 10
-3.205783318269684
 20
-5.901518371903521
 30
0.0
 10
-1.694769774497053
 20
-5.901518865695025
 30
0.0
 10
-1.694769774497053
 20
-5.901518865695025
 30
0.0
 10
-0.8546836233930182
 20
-5.901519140230902
 30
0.0
 10
-0.1736590172738614
 20
-5.220494979222394
 30
0.0
 10
-0.173658742738035
 20
-4.380408828118333
 30
0.0
 10
-0.173658742738035
 20
-4.380408828118333
 30
0.0
 10
-0.173657490523447
 20
-0.5486030691124597
 30
0.0
 10
-0.173657490523447
 20
-0.5486030691124597
 30
0.0
 10
-0.1736570355037277
 20
0.8437678318223333
 30
0.0
 10
0.9550829670957151
 20
1.972507096689014
 30
0.0
 10
2.347453868030432
 20
1.972506641669294
 30
0.0
  0
ENDBLK
  5
C8
330
C5
100
AcDbEntity
  8
0
100
AcDbBlockEnd
  0
BLOCK
  5
CB
330
C9
100
AcDbEntity
  8
0
100
AcDbBlockBegin
  2
Block_8
 70
     0
 10
0.0
 20
0.0
 30
0.0
  3
Block_8
  1

  0
SPLINE
  5
CD
330
C9
100
AcDbEntity
  8
Layer 1
 62
   142
420
  2730722
370
    20
100
AcDbSpline
210
0.0
220
0.0
230
1.0
 70
    11
 71
     3
 72
    41
 73
    37
 74
     0
 42
0.0000000001
 43
0.0000000001
 40
0.0
 40
0.0
 40
0.0
 40
0.0
 40
1.0
 40
1.0
 40
1.0
 40
2.0
 40
2.0
 40
2.0
 40
3.0
 40
3.0
 40
3.0
 40
4.0
 40
4.0
 40
4.0
 40
5.0
 40
5.0
 40
5.0
 40
6.0
 40
6.0
 40
6.0
 40
7.0
 40
7.0
 40
7.0
 40
8.0
 40
8.0
 40
8.0
 40
9.0
 40
9.0
 40
9.0
 40
10.0
 40
10.0
 40
10.0
 40
11.0
 40
11.0
 40
11.0
 40
12.0
 40
12.0
 40
12.0
 40
12.0
 10
3.896619951747538
 20
1.122511899841078
 30
0.0
 10
3.896619951747538
 20
1.122511899841078
 30
0.0
 10
2.34743917917822
 20
1.122512406105455
 30
0.0
 10
2.34743917917822
 20
1.122512406105455
 30
0.0
 10
1.425957516851831
 20
1.122512707240982
 30
0.0
 10
0.6762827926954362
 20
0.3728384730641588
 30
0.0
 10
0.6762824915598963
 20
-0.5486431892621795
 30
0.0
 10
0.6762824915598963
 20
-0.5486431892621795
 30
0.0
 10
0.6762812393801722
 20
-4.380342136744603
 30
0.0
 10
0.6762812393801722
 20
-4.380342136744603
 30
0.0
 10
0.6762808121085047
 20
-5.687803345511938
 30
0.0
 10
-0.3874198935762175
 20
-6.751503355972898
 30
0.0
 10
-1.69488788402748
 20
-6.751502928699007
 30
0.0
 10
-1.69488788402748
 20
-6.751502928699007
 30
0.0
 10
-3.38302536232609
 20
-6.75150237702428
 30
0.0
 10
-3.38302536232609
 20
-6.75150237702428
 30
0.0
 10
-3.38302536232609
 20
-6.75150237702428
 30
0.0
 10
-3.383025329645672
 20
-6.651499664350668
 30
0.0
 10
-3.383025329645672
 20
-6.651499664350668
 30
0.0
 10
-3.383025329645672
 20
-6.651499664350668
 30
0.0
 10
-1.694887851347187
 20
-6.651500216025446
 30
0.0
 10
-1.694887851347187
 20
-6.651500216025446
 30
0.0
 10
-0.4425549520416326
 20
-6.651500625281439
 30
0.0
 10
0.5762916808230708
 20
-5.632661440006105
 30
0.0
 10
0.5762920900746167
 20
-4.380342104068656
 30
0.0
 10
0.5762920900746167
 20
-4.380342104068656
 30
0.0
 10
0.5762933422543407
 20
-0.5486431565862328
 30
0.0
 10
0.5762933422543407
 20
-0.5486431565862328
 30
0.0
 10
0.5762936614076529
 20
0.4279735968859389
 30
0.0
 10
1.37082245838197
 20
1.222501874564411
 30
0.0
 10
2.347439211854066
 20
1.222501555411011
 30
0.0
 10
2.347439211854066
 20
1.222501555411011
 30
0.0
 10
3.89661998442351
 20
1.222501049146633
 30
0.0
 10
3.89661998442351
 20
1.222501049146633
 30
0.0
 10
3.89661998442351
 20
1.222501049146633
 30
0.0
 10
3.896619951747538
 20
1.122511899841078
 30
0.0
 10
3.896619951747538
 20
1.122511899841078
 30
0.0
  0
SPLINE
  5
CE
330
C9
100
AcDbEntity
  8
Layer 1
 62
   142
420
  2730722
370
    20
100
AcDbSpline
210
0.0
220
0.0
230
1.0
 70
    11
 71
     3
 72
    41
 73
    37
 74
     0
 42
0.0000000001
 43
0.0000000001
 40
0.0
 40
0.0
 40
0.0
 40
0.0
 40
1.0
 40
1.0
 40
1.0
 40
2.0
 40
2.0
 40
2.0
 40
3.0
 40
3.0
 40
3.0
 40
4.0
 40
4.0
 40
4.0
 40
5.0
 40
5.0
 40
5.0
 40
6.0
 40
6.0
 40
6.0
 40
7.0
 40
7.0
 40
7.0
 40
8.0
 40
8.0
 40
8.0
 40
9.0
 40
9.0
 40
9.0
 40
10.0
 40
10.0
 40
10.0
 40
11.0
 40
11.0
 40
11.0
 40
12.0
 40
12.0
 40
12.0
 40
12.0
 10
3.896620147829745
 20
1.722528175882719
 30
0.0
 10
3.896620147829745
 20
1.722528175882719
 30
0.0
 10
2.347439375260452
 20
1.722528682147109
 30
0.0
 10
2.347439375260452
 20
1.722528682147109
 30
0.0
 10
1.095120039322952
 20
1.72252909139868
 30
0.0
 10
0.0762801881379321
 20
0.7036763427530938
 30
0.0
 10
0.0762797788862852
 20
-0.5486429931843431
 30
0.0
 10
0.0762797788862852
 20
-0.5486429931843431
 30
0.0
 10
0.0762785267065611
 20
-4.380341940666767
 30
0.0
 10
0.0762785267065611
 20
-4.380341940666767
 30
0.0
 10
0.0762782075532237
 20
-5.356958694138938
 30
0.0
 10
-0.7182641527935959
 20
-6.151500535181033
 30
0.0
 10
-1.694887687949694
 20
-6.151500216025447
 30
0.0
 10
-1.694887687949694
 20
-6.151500216025447
 30
0.0
 10
-3.383025166248153
 20
-6.151499664350719
 30
0.0
 10
-3.383025166248153
 20
-6.151499664350719
 30
0.0
 10
-3.383025166248153
 20
-6.151499664350719
 30
0.0
 10
-3.383025133567886
 20
-6.051496951677108
 30
0.0
 10
-3.383025133567886
 20
-6.051496951677108
 30
0.0
 10
-3.383025133567886
 20
-6.051496951677108
 30
0.0
 10
-1.694887655269275
 20
-6.051497503351836
 30
0.0
 10
-1.694887655269275
 20
-6.051497503351836
 30
0.0
 10
-0.7734059929430385
 20
-6.05149780448735
 30
0.0
 10
-0.0237244871024637
 20
-5.301823570312737
 30
0.0
 10
-0.02372418596705
 20
-4.380341907986399
 30
0.0
 10
-0.02372418596705
 20
-4.380341907986399
 30
0.0
 10
-0.0237229337873259
 20
-0.5486429605039752
 30
0.0
 10
-0.0237229337873259
 20
-0.5486429605039752
 30
0.0
 10
-0.0237225065134352
 20
0.7588250299473505
 30
0.0
 10
1.039971417485036
 20
1.82251825872653
 30
0.0
 10
2.347439407936424
 20
1.822517831452652
 30
0.0
 10
2.347439407936424
 20
1.822517831452652
 30
0.0
 10
3.896620180505717
 20
1.822517325188262
 30
0.0
 10
3.896620180505717
 20
1.822517325188262
 30
0.0
 10
3.896620180505717
 20
1.822517325188262
 30
0.0
 10
3.896620147829745
 20
1.722528175882719
 30
0.0
 10
3.896620147829745
 20
1.722528175882719
 30
0.0
  0
SPLINE
  5
CF
330
C9
100
AcDbEntity
  8
Layer 1
 62
   142
420
  2730722
370
    20
100
AcDbSpline
210
0.0
220
0.0
230
1.0
 70
    11
 71
     3
 72
    41
 73
    37
 74
     0
 42
0.0000000001
 43
0.0000000001
 40
0.0
 40
0.0
 40
0.0
 40
0.0
 40
1.0
 40
1.0
 40
1.0
 40
2.0
 40
2.0
 40
2.0
 40
3.0
 40
3.0
 40
3.0
 40
4.0
 40
4.0
 40
4.0
 40
5.0
 40
5.0
 40
5.0
 40
6.0
 40
6.0
 40
6.0
 40
7.0
 40
7.0
 40
7.0
 40
8.0
 40
8.0
 40
8.0
 40
9.0
 40
9.0
 40
9.0
 40
10.0
 40
10.0
 40
10.0
 40
11.0
 40
11.0
 40
11.0
 40
12.0
 40
12.0
 40
12.0
 40
12.0
 10
3.89662001710835
 20
1.3225173251883
 30
0.0
 10
3.89662001710835
 20
1.3225173251883
 30
0.0
 10
2.347439244538905
 20
1.322517831452677
 30
0.0
 10
2.347439244538905
 20
1.322517831452677
 30
0.0
 10
1.315673836552794
 20
1.32251816862836
 30
0.0
 10
0.4762841850723842
 20
0.4831222840824189
 30
0.0
 10
0.4762838478967019
 20
-0.5486431239036417
 30
0.0
 10
0.4762838478967019
 20
-0.5486431239036417
 30
0.0
 10
0.4762825957169778
 20
-4.380342071386065
 30
0.0
 10
0.4762825957169778
 20
-4.380342071386065
 30
0.0
 10
0.4762822044832294
 20
-5.577526316177682
 30
0.0
 10
-0.4977035738773262
 20
-6.551504676269561
 30
0.0
 10
-1.694887818668992
 20
-6.551504285035863
 30
0.0
 10
-1.694887818668992
 20
-6.551504285035863
 30
0.0
 10
-3.383025296967477
 20
-6.551503733361085
 30
0.0
 10
-3.383025296967477
 20
-6.551503733361085
 30
0.0
 10
-3.383025296967477
 20
-6.551503733361085
 30
0.0
 10
-3.383025264287185
 20
-6.451501020687524
 30
0.0
 10
-3.383025264287185
 20
-6.451501020687524
 30
0.0
 10
-3.383025264287185
 20
-6.451501020687524
 30
0.0
 10
-1.694887785988574
 20
-6.451501572362253
 30
0.0
 10
-1.694887785988574
 20
-6.451501572362253
 30
0.0
 10
-0.5528386323428928
 20
-6.451501945578102
 30
0.0
 10
0.37627950982974
 20
-5.522384410667452
 30
0.0
 10
0.3762798830433667
 20
-4.380342038705697
 30
0.0
 10
0.3762798830433667
 20
-4.380342038705697
 30
0.0
 10
0.3762811352230907
 20
-0.5486430912232613
 30
0.0
 10
0.3762811352230907
 20
-0.5486430912232613
 30
0.0
 10
0.3762814904166968
 20
0.53825740790862
 30
0.0
 10
1.260538778082933
 20
1.422507335951776
 30
0.0
 10
2.347439277214877
 20
1.42250698075822
 30
0.0
 10
2.347439277214877
 20
1.42250698075822
 30
0.0
 10
3.896620049784195
 20
1.42250647449383
 30
0.0
 10
3.896620049784195
 20
1.42250647449383
 30
0.0
 10
3.896620049784195
 20
1.42250647449383
 30
0.0
 10
3.89662001710835
 20
1.3225173251883
 30
0.0
 10
3.89662001710835
 20
1.3225173251883
 30
0.0
  0
SPLINE
  5
D0
330
C9
100
AcDbEntity
  8
Layer 1
 62
   142
420
  2730722
370
    20
100
AcDbSpline
210
0.0
220
0.0
230
1.0
 70
    11
 71
     3
 72
    41
 73
    37
 74
     0
 42
0.0000000001
 43
0.0000000001
 40
0.0
 40
0.0
 40
0.0
 40
0.0
 40
1.0
 40
1.0
 40
1.0
 40
2.0
 40
2.0
 40
2.0
 40
3.0
 40
3.0
 40
3.0
 40
4.0
 40
4.0
 40
4.0
 40
5.0
 40
5.0
 40
5.0
 40
6.0
 40
6.0
 40
6.0
 40
7.0
 40
7.0
 40
7.0
 40
8.0
 40
8.0
 40
8.0
 40
9.0
 40
9.0
 40
9.0
 40
10.0
 40
10.0
 40
10.0
 40
11.0
 40
11.0
 40
11.0
 40
12.0
 40
12.0
 40
12.0
 40
12.0
 10
3.89662008246906
 20
1.522522750535497
 30
0.0
 10
3.89662008246906
 20
1.522522750535497
 30
0.0
 10
2.347439309899742
 20
1.522523256799887
 30
0.0
 10
2.347439309899742
 20
1.522523256799887
 30
0.0
 10
1.205403719621964
 20
1.522523630011316
 30
0.0
 10
0.2762787957608578
 20
0.5933925317348338
 30
0.0
 10
0.2762784225494796
 20
-0.5486430585428808
 30
0.0
 10
0.2762784225494796
 20
-0.5486430585428808
 30
0.0
 10
0.2762771703697556
 20
-4.380342006025304
 30
0.0
 10
0.2762771703697556
 20
-4.380342006025304
 30
0.0
 10
0.2762768151762758
 20
-5.467242505157198
 30
0.0
 10
-0.6079872541763633
 20
-6.351499214882196
 30
0.0
 10
-1.694887753308307
 20
-6.351498859688641
 30
0.0
 10
-1.694887753308307
 20
-6.351498859688641
 30
0.0
 10
-3.383025231606767
 20
-6.351498308013914
 30
0.0
 10
-3.383025231606767
 20
-6.351498308013914
 30
0.0
 10
-3.383025231606767
 20
-6.351498308013914
 30
0.0
 10
-3.383025198926348
 20
-6.251495595340302
 30
0.0
 10
-3.383025198926348
 20
-6.251495595340302
 30
0.0
 10
-3.383025198926348
 20
-6.251495595340302
 30
0.0
 10
-1.694887720627889
 20
-6.25149614701503
 30
0.0
 10
-1.694887720627889
 20
-6.25149614701503
 30
0.0
 10
-0.6631223126417783
 20
-6.251496484190687
 30
0.0
 10
0.1762741205226601
 20
-5.412100599646969
 30
0.0
 10
0.1762744576961444
 20
-4.380341973344936
 30
0.0
 10
0.1762744576961444
 20
-4.380341973344936
 30
0.0
 10
0.1762757098758685
 20
-0.5486430258625003
 30
0.0
 10
0.1762757098758685
 20
-0.5486430258625003
 30
0.0
 10
0.1762761011096169
 20
0.6485412189291032
 30
0.0
 10
1.150255097784047
 20
1.622512797339165
 30
0.0
 10
2.347439342575587
 20
1.622512406105443
 30
0.0
 10
2.347439342575587
 20
1.622512406105443
 30
0.0
 10
3.896620115145032
 20
1.622511899841053
 30
0.0
 10
3.896620115145032
 20
1.622511899841053
 30
0.0
 10
3.896620115145032
 20
1.622511899841053
 30
0.0
 10
3.89662008246906
 20
1.522522750535497
 30
0.0
 10
3.89662008246906
 20
1.522522750535497
 30
0.0
  0
ENDBLK
  5
CC
330
C9
100
AcDbEntity
  8
0
100
AcDbBlockEnd
  0
BLOCK
  5
D4
330
D2
100
AcDbEntity
  8
0
100
AcDbBlockBegin
  2
Block_9
 70
     0
 10
0.0
 20
0.0
 30
0.0
  3
Block_9
  1

  0
SPLINE
  5
D6
330
D2
100
AcDbEntity
  8
Layer 1
 62
    93
420
  7454542
370
    20
100
AcDbSpline
210
0.0
220
0.0
230
1.0
 70
     9
 71
     3
 72
    29
 73
    25
 74
     0
 42
0.0000000001
 43
0.0000000001
 40
0.0
 40
0.0
 40
0.0
 40
0.0
 40
1.0
 40
1.0
 40
1.0
 40
2.0
 40
2.0
 40
2.0
 40
3.0
 40
3.0
 40
3.0
 40
4.0
 40
4.0
 40
4.0
 40
5.0
 40
5.0
 40
5.0
 40
6.0
 40
6.0
 40
6.0
 40
7.0
 40
7.0
 40
7.0
 40
8.0
 40
8.0
 40
8.0
 40
8.0
 10
-2.338376794054574
 20
-4.44167076814646
 30
0.0
 10
-2.338376794054574
 20
-4.44167076814646
 30
0.0
 10
-2.338373286334002
 20
1.401216705313193
 30
0.0
 10
-2.338373286334002
 20
1.401216705313193
 30
0.0
 10
-2.338373231302751
 20
1.492883371979852
 30
0.0
 10
-2.263373186277337
 20
1.567883326954314
 30
0.0
 10
-2.171706519610691
 20
1.567883271923126
 30
0.0
 10
-2.171706519610691
 20
1.567883271923126
 30
0.0
 10
-1.791664056765827
 20
1.567883043768321
 30
0.0
 10
-1.791664056765827
 20
1.567883043768321
 30
0.0
 10
-1.699997390099156
 20
1.567882988737134
 30
0.0
 10
-1.624997435124555
 20
1.492882943711631
 30
0.0
 10
-1.624997490155806
 20
1.401216277044972
 30
0.0
 10
-1.624997490155806
 20
1.401216277044972
 30
0.0
 10
-1.625000997876377
 20
-4.441671196414682
 30
0.0
 10
-1.625000997876377
 20
-4.441671196414682
 30
0.0
 10
-1.625001052907628
 20
-4.533337863081353
 30
0.0
 10
-1.700001097933042
 20
-4.608337818055789
 30
0.0
 10
-1.791667764599714
 20
-4.608337763024589
 30
0.0
 10
-1.791667764599714
 20
-4.608337763024589
 30
0.0
 10
-2.171710227444703
 20
-4.60833753486981
 30
0.0
 10
-2.171710227444703
 20
-4.60833753486981
 30
0.0
 10
-2.263376894111375
 20
-4.60833747983861
 30
0.0
 10
-2.338376849085824
 20
-4.533337434813157
 30
0.0
 10
-2.338376794054574
 20
-4.44167076814646
 30
0.0
  0
INSERT
  5
D8
330
D2
100
AcDbEntity
  8
Layer 1
100
AcDbBlockReference
  2
Block_10
 10
0.0
 20
0.0
 30
0.0
  0
ENDBLK
  5
D5
330
D2
100
AcDbEntity
  8
0
100
AcDbBlockEnd
  0
BLOCK
  5
D9
330
D7
100
AcDbEntity
  8
0
100
AcDbBlockBegin
  2
Block_10
 70
     0
 10
0.0
 20
0.0
 30
0.0
  3
Block_10
  1

  0
INSERT
  5
DC
330
D7
100
AcDbEntity
  8
Layer 1
100
AcDbBlockReference
  2
Block_11
 10
0.0
 20
0.0
 30
0.0
  0
ENDBLK
  5
DA
330
D7
100
AcDbEntity
  8
0
100
AcDbBlockEnd
  0
BLOCK
  5
DD
330
DB
100
AcDbEntity
  8
0
100
AcDbBlockBegin
  2
Block_11
 70
     0
 10
0.0
 20
0.0
 30
0.0
  3
Block_11
  1

  0
LWPOLYLINE
  5
DF
330
DB
100
AcDbEntity
  8
Layer 1
 62
   142
420
  2730722
370
    20
100
AcDbPolyline
 90
        4
 70
     1
 43
0.0
 10
-1.930367130167484
 20
-4.582866300883324
 10
-1.930363452916367
 20
1.542411748160715
 10
-1.830374303610811
 20
1.542411688133218
 10
-1.830377980861928
 20
-4.582866360910833
  0
LWPOLYLINE
  5
E0
330
DB
100
AcDbEntity
  8
Layer 1
 62
   142
420
  2730722
370
    20
100
AcDbPolyline
 90
        4
 70
     1
 43
0.0
 10
-2.133003848917332
 20
-4.582866179232344
 10
-2.133000171666367
 20
1.542411869811682
 10
-2.033011022360811
 20
1.54241180978416
 10
-2.033014699611928
 20
-4.582866239259853
  0
ENDBLK
  5
DE
330
DB
100
AcDbEntity
  8
0
100
AcDbBlockEnd
  0
BLOCK
  5
E4
330
E2
100
AcDbEntity
  8
0
100
AcDbBlockBegin
  2
Block_12
 70
     0
 10
0.0
 20
0.0
 30
0.0
  3
Block_12
  1

  0
LWPOLYLINE
  5
E6
330
E2
100
AcDbEntity
  8
Layer 1
 62
   250
420
  2301728
370
    20
100
AcDbPolyline
 90
        4
 70
     1
 43
0.0
 10
11.29310726455684
 20
-5.857668874648121
 10
11.29310987078722
 20
2.117456840467133
 10
11.39310919261882
 20
2.117456807787864
 10
11.39310658638843
 20
-5.857668907327377
  0
LWPOLYLINE
  5
E7
330
E2
100
AcDbEntity
  8
Layer 1
 62
   250
420
  2301728
370
    20
100
AcDbPolyline
 90
        4
 70
     1
 43
0.0
 10
11.09401129139592
 20
-5.857668809584589
 10
11.0940138976263
 20
2.117456905530679
 10
11.19401321945788
 20
2.11745687285141
 10
11.19401061322749
 20
-5.857668842263844
  0
LWPOLYLINE
  5
E8
330
E2
100
AcDbEntity
  8
Layer 1
 62
   250
420
  2301728
370
    20
100
AcDbPolyline
 90
        4
 70
     1
 43
0.0
 10
10.89376666287916
 20
-5.857668744145636
 10
10.89376926910954
 20
2.117456970969619
 10
10.99376859094114
 20
2.117456938290362
 10
10.99376598471076
 20
-5.857668776824892
  0
LWPOLYLINE
  5
E9
330
E2
100
AcDbEntity
  8
Layer 1
 62
   250
420
  2301728
370
    20
100
AcDbPolyline
 90
        4
 70
     1
 43
0.0
 10
10.68443872811106
 20
-5.857668675738346
 10
10.68444133434145
 20
2.117457039376922
 10
10.78444065617302
 20
2.11745700669764
 10
10.78443804994264
 20
-5.857668708417602
  0
SPLINE
  5
EA
330
E2
100
AcDbEntity
  8
Layer 1
 62
   215
420
  9981598
370
    20
100
AcDbSpline
210
0.0
220
0.0
230
1.0
 70
     9
 71
     3
 72
    29
 73
    25
 74
     0
 42
0.0000000001
 43
0.0000000001
 40
0.0
 40
0.0
 40
0.0
 40
0.0
 40
1.0
 40
1.0
 40
1.0
 40
2.0
 40
2.0
 40
2.0
 40
3.0
 40
3.0
 40
3.0
 40
4.0
 40
4.0
 40
4.0
 40
5.0
 40
5.0
 40
5.0
 40
6.0
 40
6.0
 40
6.0
 40
7.0
 40
7.0
 40
7.0
 40
8.0
 40
8.0
 40
8.0
 40
8.0
 10
10.70892548628621
 20
2.141039207045777
 30
0.0
 10
10.70892548628621
 20
2.141039207045777
 30
0.0
 10
11.40818566536356
 20
2.141038978531115
 30
0.0
 10
11.40818566536356
 20
2.141038978531115
 30
0.0
 10
11.49828661611726
 20
2.14103894908659
 30
0.0
 10
11.57200555173386
 20
2.067319965288043
 30
0.0
 10
11.57200552228932
 20
1.977219014534322
 30
0.0
 10
11.57200552228932
 20
1.977219014534322
 30
0.0
 10
11.57200300634579
 20
-5.721626833106256
 30
0.0
 10
11.57200300634579
 20
-5.721626833106256
 30
0.0
 10
11.57200297690125
 20
-5.811727783859977
 30
0.0
 10
11.4982839931027
 20
-5.885446719476627
 30
0.0
 10
11.40818304234898
 20
-5.88544669003209
 30
0.0
 10
11.40818304234898
 20
-5.88544669003209
 30
0.0
 10
10.70892286327168
 20
-5.885446461517454
 30
0.0
 10
10.70892286327168
 20
-5.885446461517454
 30
0.0
 10
10.61882191251796
 20
-5.885446432072916
 30
0.0
 10
10.54510297690131
 20
-5.811727448274319
 30
0.0
 10
10.54510300634585
 20
-5.721626497520597
 30
0.0
 10
10.54510300634585
 20
-5.721626497520597
 30
0.0
 10
10.54510552228938
 20
1.97721935011998
 30
0.0
 10
10.54510552228938
 20
1.97721935011998
 30
0.0
 10
10.54510555173391
 20
2.067320300873689
 30
0.0
 10
10.61882453553251
 20
2.141039236490314
 30
0.0
 10
10.70892548628621
 20
2.141039207045777
 30
0.0
  0
ENDBLK
  5
E5
330
E2
100
AcDbEntity
  8
0
100
AcDbBlockEnd
  0
BLOCK
  5
ED
330
EB
100
AcDbEntity
  8
0
100
AcDbBlockBegin
  2
Block_13
 70
     0
 10
0.0
 20
0.0
 30
0.0
  3
Block_13
  1

  0
INSERT
  5
F0
330
EB
100
AcDbEntity
  8
Layer 1
100
AcDbBlockReference
  2
Block_14
 10
0.0
 20
0.0
 30
0.0
  0
INSERT
  5
F9
330
EB
100
AcDbEntity
  8
Layer 1
100
AcDbBlockReference
  2
Block_16
 10
0.0
 20
0.0
 30
0.0
  0
INSERT
  5
106
330
EB
100
AcDbEntity
  8
Layer 1
100
AcDbBlockReference
  2
Block_19
 10
0.0
 20
0.0
 30
0.0
  0
INSERT
  5
117
330
EB
100
AcDbEntity
  8
Layer 1
100
AcDbBlockReference
  2
Block_23
 10
0.0
 20
0.0
 30
0.0
  0
INSERT
  5
12C
330
EB
100
AcDbEntity
  8
Layer 1
100
AcDbBlockReference
  2
Block_28
 10
0.0
 20
0.0
 30
0.0
  0
ENDBLK
  5
EE
330
EB
100
AcDbEntity
  8
0
100
AcDbBlockEnd
  0
BLOCK
  5
F1
330
EF
100
AcDbEntity
  8
0
100
AcDbBlockBegin
  2
Block_14
 70
     0
 10
0.0
 20
0.0
 30
0.0
  3
Block_14
  1

  0
INSERT
  5
F4
330
EF
100
AcDbEntity
  8
Layer 1
100
AcDbBlockReference
  2
Block_15
 10
0.0
 20
0.0
 30
0.0
  0
ENDBLK
  5
F2
330
EF
100
AcDbEntity
  8
0
100
AcDbBlockEnd
  0
BLOCK
  5
F5
330
F3
100
AcDbEntity
  8
0
100
AcDbBlockBegin
  2
Block_15
 70
     0
 10
0.0
 20
0.0
 30
0.0
  3
Block_15
  1

  0
SPLINE
  5
F7
330
F3
100
AcDbEntity
  8
Layer 1
 62
   142
420
  2730722
370
    20
100
AcDbSpline
210
0.0
220
0.0
230
1.0
 70
    11
 71
     3
 72
   161
 73
   157
 74
     0
 42
0.0000000001
 43
0.0000000001
 40
0.0
 40
0.0
 40
0.0
 40
0.0
 40
1.0
 40
1.0
 40
1.0
 40
2.0
 40
2.0
 40
2.0
 40
3.0
 40
3.0
 40
3.0
 40
4.0
 40
4.0
 40
4.0
 40
5.0
 40
5.0
 40
5.0
 40
6.0
 40
6.0
 40
6.0
 40
7.0
 40
7.0
 40
7.0
 40
8.0
 40
8.0
 40
8.0
 40
9.0
 40
9.0
 40
9.0
 40
10.0
 40
10.0
 40
10.0
 40
11.0
 40
11.0
 40
11.0
 40
12.0
 40
12.0
 40
12.0
 40
13.0
 40
13.0
 40
13.0
 40
14.0
 40
14.0
 40
14.0
 40
15.0
 40
15.0
 40
15.0
 40
16.0
 40
16.0
 40
16.0
 40
17.0
 40
17.0
 40
17.0
 40
18.0
 40
18.0
 40
18.0
 40
19.0
 40
19.0
 40
19.0
 40
20.0
 40
20.0
 40
20.0
 40
21.0
 40
21.0
 40
21.0
 40
22.0
 40
22.0
 40
22.0
 40
23.0
 40
23.0
 40
23.0
 40
24.0
 40
24.0
 40
24.0
 40
25.0
 40
25.0
 40
25.0
 40
26.0
 40
26.0
 40
26.0
 40
27.0
 40
27.0
 40
27.0
 40
28.0
 40
28.0
 40
28.0
 40
29.0
 40
29.0
 40
29.0
 40
30.0
 40
30.0
 40
30.0
 40
31.0
 40
31.0
 40
31.0
 40
32.0
 40
32.0
 40
32.0
 40
33.0
 40
33.0
 40
33.0
 40
34.0
 40
34.0
 40
34.0
 40
35.0
 40
35.0
 40
35.0
 40
36.0
 40
36.0
 40
36.0
 40
37.0
 40
37.0
 40
37.0
 40
38.0
 40
38.0
 40
38.0
 40
39.0
 40
39.0
 40
39.0
 40
40.0
 40
40.0
 40
40.0
 40
41.0
 40
41.0
 40
41.0
 40
42.0
 40
42.0
 40
42.0
 40
43.0
 40
43.0
 40
43.0
 40
44.0
 40
44.0
 40
44.0
 40
45.0
 40
45.0
 40
45.0
 40
46.0
 40
46.0
 40
46.0
 40
47.0
 40
47.0
 40
47.0
 40
48.0
 40
48.0
 40
48.0
 40
49.0
 40
49.0
 40
49.0
 40
50.0
 40
50.0
 40
50.0
 40
51.0
 40
51.0
 40
51.0
 40
52.0
 40
52.0
 40
52.0
 40
52.0
 10
-5.4356655254991
 20
-7.326260805398002
 30
0.0
 10
-5.4356655254991
 20
-7.326260805398002
 30
0.0
 10
-5.4356655254991
 20
-6.946757767203557
 30
0.0
 10
-5.4356655254991
 20
-6.946757767203557
 30
0.0
 10
-5.4356655254991
 20
-6.645515362689669
 30
0.0
 10
-5.190602591471322
 20
-6.400452428661891
 30
0.0
 10
-4.889373750325489
 20
-6.400452428661891
 30
0.0
 10
-4.889373750325489
 20
-6.400452428661891
 30
0.0
 10
-4.7347377911241
 20
-6.400452428661891
 30
0.0
 10
-4.7347377911241
 20
-6.400452428661891
 30
0.0
 10
-4.157806367512989
 20
-6.400452428661891
 30
0.0
 10
-3.688432452582433
 20
-5.931078513731335
 30
0.0
 10
-3.688432452582433
 20
-5.354147090120224
 30
0.0
 10
-3.688432452582433
 20
-5.354147090120224
 30
0.0
 10
-3.688432452582433
 20
-5.347094138731335
 30
0.0
 10
-3.688432452582433
 20
-5.347094138731335
 30
0.0
 10
-3.688432452582433
 20
-4.77016271512025
 30
0.0
 10
-4.157806367512989
 20
-4.300788800189694
 30
0.0
 10
-4.7347377911241
 20
-4.300788800189694
 30
0.0
 10
-4.7347377911241
 20
-4.300788800189694
 30
0.0
 10
-4.889373750325489
 20
-4.300788800189694
 30
0.0
 10
-4.889373750325489
 20
-4.300788800189694
 30
0.0
 10
-5.190602591471322
 20
-4.300788800189694
 30
0.0
 10
-5.4356655254991
 20
-4.055725866161916
 30
0.0
 10
-5.4356655254991
 20
-3.754490243332055
 30
0.0
 10
-5.4356655254991
 20
-3.754490243332055
 30
0.0
 10
-5.4356655254991
 20
-3.748474889599416
 30
0.0
 10
-5.4356655254991
 20
-3.748474889599416
 30
0.0
 10
-5.4356655254991
 20
-3.447246048453583
 30
0.0
 10
-5.190602591471322
 20
-3.202176332741803
 30
0.0
 10
-4.889373750325489
 20
-3.202176332741803
 30
0.0
 10
-4.889373750325489
 20
-3.202176332741803
 30
0.0
 10
-4.7347377911241
 20
-3.202176332741803
 30
0.0
 10
-4.7347377911241
 20
-3.202176332741803
 30
0.0
 10
-4.157806367512989
 20
-3.202176332741803
 30
0.0
 10
-3.688432452582433
 20
-2.732809199495275
 30
0.0
 10
-3.688432452582433
 20
-2.155870994200136
 30
0.0
 10
-3.688432452582433
 20
-2.155870994200136
 30
0.0
 10
-3.688432452582433
 20
-2.148112747672358
 30
0.0
 10
-3.688432452582433
 20
-2.148112747672358
 30
0.0
 10
-3.688432452582433
 20
-1.571181324061247
 30
0.0
 10
-4.157806367512989
 20
-1.101814190814719
 30
0.0
 10
-4.7347377911241
 20
-1.101814190814719
 30
0.0
 10
-4.7347377911241
 20
-1.101814190814719
 30
0.0
 10
-4.889373750325489
 20
-1.101814190814719
 30
0.0
 10
-4.889373750325489
 20
-1.101814190814719
 30
0.0
 10
-5.190602591471322
 20
-1.101814190814719
 30
0.0
 10
-5.4356655254991
 20
-0.8567444751029142
 30
0.0
 10
-5.4356655254991
 20
-0.5555088522730532
 30
0.0
 10
-5.4356655254991
 20
-0.5555088522730532
 30
0.0
 10
-5.4356655254991
 20
-0.5477302606931921
 30
0.0
 10
-5.4356655254991
 20
-0.5477302606931921
 30
0.0
 10
-5.4356655254991
 20
-0.2464946378633309
 30
0.0
 10
-5.190602591471322
 20
-0.0014249221515254
 30
0.0
 10
-4.889373750325489
 20
-0.0014249221515254
 30
0.0
 10
-4.889373750325489
 20
-0.0014249221515254
 30
0.0
 10
-4.7347377911241
 20
-0.0014249221515254
 30
0.0
 10
-4.7347377911241
 20
-0.0014249221515254
 30
0.0
 10
-4.157806367512989
 20
-0.0014249221515254
 30
0.0
 10
-3.688432452582433
 20
0.4679422110950024
 30
0.0
 10
-3.688432452582433
 20
1.044880416390141
 30
0.0
 10
-3.688432452582433
 20
1.044880416390141
 30
0.0
 10
-3.688432452582433
 20
1.051641755365835
 30
0.0
 10
-3.688432452582433
 20
1.051641755365835
 30
0.0
 10
-3.688432452582433
 20
1.628573178976946
 30
0.0
 10
-4.157806367512989
 20
2.097940312223474
 30
0.0
 10
-4.7347377911241
 20
2.097940312223474
 30
0.0
 10
-4.7347377911241
 20
2.097940312223474
 30
0.0
 10
-4.889373750325489
 20
2.097940312223474
 30
0.0
 10
-4.889373750325489
 20
2.097940312223474
 30
0.0
 10
-5.190602591471322
 20
2.097940312223474
 30
0.0
 10
-5.4356655254991
 20
2.343010027935279
 30
0.0
 10
-5.4356655254991
 20
2.644245650765141
 30
0.0
 10
-5.4356655254991
 20
2.644245650765141
 30
0.0
 10
-5.4356655254991
 20
3.023741907275557
 30
0.0
 10
-5.4356655254991
 20
3.023741907275557
 30
0.0
 10
-5.4356655254991
 20
3.023741907275557
 30
0.0
 10
-5.335676376193545
 20
3.023741907275557
 30
0.0
 10
-5.335676376193545
 20
3.023741907275557
 30
0.0
 10
-5.335676376193545
 20
3.023741907275557
 30
0.0
 10
-5.335676376193545
 20
2.644245650765141
 30
0.0
 10
-5.335676376193545
 20
2.644245650765141
 30
0.0
 10
-5.335676376193545
 20
2.398151900765141
 30
0.0
 10
-5.135467500325489
 20
2.197943024897085
 30
0.0
 10
-4.889373750325489
 20
2.197943024897085
 30
0.0
 10
-4.889373750325489
 20
2.197943024897085
 30
0.0
 10
-4.7347377911241
 20
2.197943024897085
 30
0.0
 10
-4.7347377911241
 20
2.197943024897085
 30
0.0
 10
-4.102671276367155
 20
2.197943024897085
 30
0.0
 10
-3.588443303276878
 20
1.683715051806807
 30
0.0
 10
-3.588443303276878
 20
1.051641755365835
 30
0.0
 10
-3.588443303276878
 20
1.051641755365835
 30
0.0
 10
-3.588443303276878
 20
1.044880416390141
 30
0.0
 10
-3.588443303276878
 20
1.044880416390141
 30
0.0
 10
-3.588443303276878
 20
0.412807119949169
 30
0.0
 10
-4.102671276367155
 20
-0.1014276348251365
 30
0.0
 10
-4.7347377911241
 20
-0.1014276348251365
 30
0.0
 10
-4.7347377911241
 20
-0.1014276348251365
 30
0.0
 10
-4.889373750325489
 20
-0.1014276348251365
 30
0.0
 10
-4.889373750325489
 20
-0.1014276348251365
 30
0.0
 10
-5.135467500325489
 20
-0.1014276348251365
 30
0.0
 10
-5.335676376193545
 20
-0.301636510693192
 30
0.0
 10
-5.335676376193545
 20
-0.5477302606931921
 30
0.0
 10
-5.335676376193545
 20
-0.5477302606931921
 30
0.0
 10
-5.335676376193545
 20
-0.5555088522730532
 30
0.0
 10
-5.335676376193545
 20
-0.5555088522730532
 30
0.0
 10
-5.335676376193545
 20
-0.8016026022730532
 30
0.0
 10
-5.135467500325489
 20
-1.001811478141108
 30
0.0
 10
-4.889373750325489
 20
-1.001811478141108
 30
0.0
 10
-4.889373750325489
 20
-1.001811478141108
 30
0.0
 10
-4.7347377911241
 20
-1.001811478141108
 30
0.0
 10
-4.7347377911241
 20
-1.001811478141108
 30
0.0
 10
-4.102671276367155
 20
-1.001811478141108
 30
0.0
 10
-3.588443303276878
 20
-1.516039451231386
 30
0.0
 10
-3.588443303276878
 20
-2.148112747672358
 30
0.0
 10
-3.588443303276878
 20
-2.148112747672358
 30
0.0
 10
-3.588443303276878
 20
-2.155870994200136
 30
0.0
 10
-3.588443303276878
 20
-2.155870994200136
 30
0.0
 10
-3.588443303276878
 20
-2.787944290641108
 30
0.0
 10
-4.102671276367155
 20
-3.302179045415414
 30
0.0
 10
-4.7347377911241
 20
-3.302179045415414
 30
0.0
 10
-4.7347377911241
 20
-3.302179045415414
 30
0.0
 10
-4.889373750325489
 20
-3.302179045415414
 30
0.0
 10
-4.889373750325489
 20
-3.302179045415414
 30
0.0
 10
-5.135467500325489
 20
-3.302179045415414
 30
0.0
 10
-5.335676376193545
 20
-3.502387921283444
 30
0.0
 10
-5.335676376193545
 20
-3.748474889599416
 30
0.0
 10
-5.335676376193545
 20
-3.748474889599416
 30
0.0
 10
-5.335676376193545
 20
-3.754490243332055
 30
0.0
 10
-5.335676376193545
 20
-3.754490243332055
 30
0.0
 10
-5.335676376193545
 20
-4.000583993332055
 30
0.0
 10
-5.135467500325489
 20
-4.200799650884138
 30
0.0
 10
-4.889373750325489
 20
-4.200799650884138
 30
0.0
 10
-4.889373750325489
 20
-4.200799650884138
 30
0.0
 10
-4.7347377911241
 20
-4.200799650884138
 30
0.0
 10
-4.7347377911241
 20
-4.200799650884138
 30
0.0
 10
-4.102671276367155
 20
-4.200799650884138
 30
0.0
 10
-3.588443303276878
 20
-4.715027623974416
 30
0.0
 10
-3.588443303276878
 20
-5.347094138731335
 30
0.0
 10
-3.588443303276878
 20
-5.347094138731335
 30
0.0
 10
-3.588443303276878
 20
-5.354147090120224
 30
0.0
 10
-3.588443303276878
 20
-5.354147090120224
 30
0.0
 10
-3.588443303276878
 20
-5.986213604877169
 30
0.0
 10
-4.102671276367155
 20
-6.500441577967446
 30
0.0
 10
-4.7347377911241
 20
-6.500441577967446
 30
0.0
 10
-4.7347377911241
 20
-6.500441577967446
 30
0.0
 10
-4.889373750325489
 20
-6.500441577967446
 30
0.0
 10
-4.889373750325489
 20
-6.500441577967446
 30
0.0
 10
-5.135467500325489
 20
-6.500441577967446
 30
0.0
 10
-5.335676376193545
 20
-6.700664017203557
 30
0.0
 10
-5.335676376193545
 20
-6.946757767203557
 30
0.0
 10
-5.335676376193545
 20
-6.946757767203557
 30
0.0
 10
-5.335676376193545
 20
-7.326260805398002
 30
0.0
 10
-5.335676376193545
 20
-7.326260805398002
 30
0.0
 10
-5.335676376193545
 20
-7.326260805398002
 30
0.0
 10
-5.4356655254991
 20
-7.326260805398002
 30
0.0
 10
-5.4356655254991
 20
-7.326260805398002
 30
0.0
  0
ENDBLK
  5
F6
330
F3
100
AcDbEntity
  8
0
100
AcDbBlockEnd
  0
BLOCK
  5
FA
330
F8
100
AcDbEntity
  8
0
100
AcDbBlockBegin
  2
Block_16
 70
     0
 10
0.0
 20
0.0
 30
0.0
  3
Block_16
  1

  0
INSERT
  5
FD
330
F8
100
AcDbEntity
  8
Layer 1
100
AcDbBlockReference
  2
Block_17
 10
0.0
 20
0.0
 30
0.0
  0
ENDBLK
  5
FB
330
F8
100
AcDbEntity
  8
0
100
AcDbBlockEnd
  0
BLOCK
  5
FE
330
FC
100
AcDbEntity
  8
0
100
AcDbBlockBegin
  2
Block_17
 70
     0
 10
0.0
 20
0.0
 30
0.0
  3
Block_17
  1

  0
INSERT
  5
101
330
FC
100
AcDbEntity
  8
Layer 1
100
AcDbBlockReference
  2
Block_18
 10
0.0
 20
0.0
 30
0.0
  0
ENDBLK
  5
FF
330
FC
100
AcDbEntity
  8
0
100
AcDbBlockEnd
  0
BLOCK
  5
102
330
100
100
AcDbEntity
  8
0
100
AcDbBlockBegin
  2
Block_18
 70
     0
 10
0.0
 20
0.0
 30
0.0
  3
Block_18
  1

  0
SPLINE
  5
104
330
100
100
AcDbEntity
  8
Layer 1
 62
   142
420
  2730722
370
    20
100
AcDbSpline
210
0.0
220
0.0
230
1.0
 70
    11
 71
     3
 72
   161
 73
   157
 74
     0
 42
0.0000000001
 43
0.0000000001
 40
0.0
 40
0.0
 40
0.0
 40
0.0
 40
1.0
 40
1.0
 40
1.0
 40
2.0
 40
2.0
 40
2.0
 40
3.0
 40
3.0
 40
3.0
 40
4.0
 40
4.0
 40
4.0
 40
5.0
 40
5.0
 40
5.0
 40
6.0
 40
6.0
 40
6.0
 40
7.0
 40
7.0
 40
7.0
 40
8.0
 40
8.0
 40
8.0
 40
9.0
 40
9.0
 40
9.0
 40
10.0
 40
10.0
 40
10.0
 40
11.0
 40
11.0
 40
11.0
 40
12.0
 40
12.0
 40
12.0
 40
13.0
 40
13.0
 40
13.0
 40
14.0
 40
14.0
 40
14.0
 40
15.0
 40
15.0
 40
15.0
 40
16.0
 40
16.0
 40
16.0
 40
17.0
 40
17.0
 40
17.0
 40
18.0
 40
18.0
 40
18.0
 40
19.0
 40
19.0
 40
19.0
 40
20.0
 40
20.0
 40
20.0
 40
21.0
 40
21.0
 40
21.0
 40
22.0
 40
22.0
 40
22.0
 40
23.0
 40
23.0
 40
23.0
 40
24.0
 40
24.0
 40
24.0
 40
25.0
 40
25.0
 40
25.0
 40
26.0
 40
26.0
 40
26.0
 40
27.0
 40
27.0
 40
27.0
 40
28.0
 40
28.0
 40
28.0
 40
29.0
 40
29.0
 40
29.0
 40
30.0
 40
30.0
 40
30.0
 40
31.0
 40
31.0
 40
31.0
 40
32.0
 40
32.0
 40
32.0
 40
33.0
 40
33.0
 40
33.0
 40
34.0
 40
34.0
 40
34.0
 40
35.0
 40
35.0
 40
35.0
 40
36.0
 40
36.0
 40
36.0
 40
37.0
 40
37.0
 40
37.0
 40
38.0
 40
38.0
 40
38.0
 40
39.0
 40
39.0
 40
39.0
 40
40.0
 40
40.0
 40
40.0
 40
41.0
 40
41.0
 40
41.0
 40
42.0
 40
42.0
 40
42.0
 40
43.0
 40
43.0
 40
43.0
 40
44.0
 40
44.0
 40
44.0
 40
45.0
 40
45.0
 40
45.0
 40
46.0
 40
46.0
 40
46.0
 40
47.0
 40
47.0
 40
47.0
 40
48.0
 40
48.0
 40
48.0
 40
49.0
 40
49.0
 40
49.0
 40
50.0
 40
50.0
 40
50.0
 40
51.0
 40
51.0
 40
51.0
 40
52.0
 40
52.0
 40
52.0
 40
52.0
 10
-5.635657387478267
 20
-7.326260805398002
 30
0.0
 10
-5.635657387478267
 20
-7.326260805398002
 30
0.0
 10
-5.635657387478267
 20
-6.946757767203557
 30
0.0
 10
-5.635657387478267
 20
-6.946757767203557
 30
0.0
 10
-5.635657387478267
 20
-6.535245180398002
 30
0.0
 10
-5.300886337131045
 20
-6.200460566682724
 30
0.0
 10
-4.889373750325489
 20
-6.200460566682724
 30
0.0
 10
-4.889373750325489
 20
-6.200460566682724
 30
0.0
 10
-4.7347377911241
 20
-6.200460566682724
 30
0.0
 10
-4.7347377911241
 20
-6.200460566682724
 30
0.0
 10
-4.268090113172712
 20
-6.200460566682724
 30
0.0
 10
-3.888437877929656
 20
-5.820808331439669
 30
0.0
 10
-3.888437877929656
 20
-5.354147090120224
 30
0.0
 10
-3.888437877929656
 20
-5.354147090120224
 30
0.0
 10
-3.888437877929656
 20
-5.347107702099391
 30
0.0
 10
-3.888437877929656
 20
-5.347107702099391
 30
0.0
 10
-3.888437877929656
 20
-4.880446460779972
 30
0.0
 10
-4.268090113172712
 20
-4.500794225536916
 30
0.0
 10
-4.7347377911241
 20
-4.500794225536916
 30
0.0
 10
-4.7347377911241
 20
-4.500794225536916
 30
0.0
 10
-4.889373750325489
 20
-4.500794225536916
 30
0.0
 10
-4.889373750325489
 20
-4.500794225536916
 30
0.0
 10
-5.300886337131045
 20
-4.500794225536916
 30
0.0
 10
-5.635657387478267
 20
-4.166009611821638
 30
0.0
 10
-5.635657387478267
 20
-3.754497025016083
 30
0.0
 10
-5.635657387478267
 20
-3.754497025016083
 30
0.0
 10
-5.635657387478267
 20
-3.748474889599416
 30
0.0
 10
-5.635657387478267
 20
-3.748474889599416
 30
0.0
 10
-5.635657387478267
 20
-3.336962302793886
 30
0.0
 10
-5.300886337131045
 20
-3.00217090739458
 30
0.0
 10
-4.889373750325489
 20
-3.00217090739458
 30
0.0
 10
-4.889373750325489
 20
-3.00217090739458
 30
0.0
 10
-4.7347377911241
 20
-3.00217090739458
 30
0.0
 10
-4.7347377911241
 20
-3.00217090739458
 30
0.0
 10
-4.268090113172712
 20
-3.00217090739458
 30
0.0
 10
-3.888437877929656
 20
-2.622525453835553
 30
0.0
 10
-3.888437877929656
 20
-2.155870994200136
 30
0.0
 10
-3.888437877929656
 20
-2.155870994200136
 30
0.0
 10
-3.888437877929656
 20
-2.148119529356386
 30
0.0
 10
-3.888437877929656
 20
-2.148119529356386
 30
0.0
 10
-3.888437877929656
 20
-1.681465069720969
 30
0.0
 10
-4.268090113172712
 20
-1.301819616161941
 30
0.0
 10
-4.7347377911241
 20
-1.301819616161941
 30
0.0
 10
-4.7347377911241
 20
-1.301819616161941
 30
0.0
 10
-4.889373750325489
 20
-1.301819616161941
 30
0.0
 10
-4.889373750325489
 20
-1.301819616161941
 30
0.0
 10
-5.300886337131045
 20
-1.301819616161941
 30
0.0
 10
-5.635657387478267
 20
-0.9670282207626364
 30
0.0
 10
-5.635657387478267
 20
-0.5555156339570809
 30
0.0
 10
-5.635657387478267
 20
-0.5555156339570809
 30
0.0
 10
-5.635657387478267
 20
-0.5477302606931921
 30
0.0
 10
-5.635657387478267
 20
-0.5477302606931921
 30
0.0
 10
-5.635657387478267
 20
-0.1362176738876365
 30
0.0
 10
-5.300886337131045
 20
0.198573721511669
 30
0.0
 10
-4.889373750325489
 20
0.198573721511669
 30
0.0
 10
-4.889373750325489
 20
0.198573721511669
 30
0.0
 10
-4.7347377911241
 20
0.198573721511669
 30
0.0
 10
-4.7347377911241
 20
0.198573721511669
 30
0.0
 10
-4.268090113172712
 20
0.198573721511669
 30
0.0
 10
-3.888437877929656
 20
0.5782259567547246
 30
0.0
 10
-3.888437877929656
 20
1.044880416390141
 30
0.0
 10
-3.888437877929656
 20
1.044880416390141
 30
0.0
 10
-3.888437877929656
 20
1.05162819199778
 30
0.0
 10
-3.888437877929656
 20
1.05162819199778
 30
0.0
 10
-3.888437877929656
 20
1.518282651633196
 30
0.0
 10
-4.268090113172712
 20
1.897934886876252
 30
0.0
 10
-4.7347377911241
 20
1.897934886876252
 30
0.0
 10
-4.7347377911241
 20
1.897934886876252
 30
0.0
 10
-4.889373750325489
 20
1.897934886876252
 30
0.0
 10
-4.889373750325489
 20
1.897934886876252
 30
0.0
 10
-5.300886337131045
 20
1.897934886876252
 30
0.0
 10
-5.635657387478267
 20
2.232726282275557
 30
0.0
 10
-5.635657387478267
 20
2.644238869081113
 30
0.0
 10
-5.635657387478267
 20
2.644238869081113
 30
0.0
 10
-5.635657387478267
 20
3.023741907275557
 30
0.0
 10
-5.635657387478267
 20
3.023741907275557
 30
0.0
 10
-5.635657387478267
 20
3.023741907275557
 30
0.0
 10
-5.535668238172712
 20
3.023741907275557
 30
0.0
 10
-5.535668238172712
 20
3.023741907275557
 30
0.0
 10
-5.535668238172712
 20
3.023741907275557
 30
0.0
 10
-5.535668238172712
 20
2.644238869081113
 30
0.0
 10
-5.535668238172712
 20
2.644238869081113
 30
0.0
 10
-5.535668238172712
 20
2.287868155105418
 30
0.0
 10
-5.245737682617155
 20
1.997937599549863
 30
0.0
 10
-4.889373750325489
 20
1.997937599549863
 30
0.0
 10
-4.889373750325489
 20
1.997937599549863
 30
0.0
 10
-4.7347377911241
 20
1.997937599549863
 30
0.0
 10
-4.7347377911241
 20
1.997937599549863
 30
0.0
 10
-4.212955022026878
 20
1.997937599549863
 30
0.0
 10
-3.7884487286241
 20
1.573424524463057
 30
0.0
 10
-3.7884487286241
 20
1.05162819199778
 30
0.0
 10
-3.7884487286241
 20
1.05162819199778
 30
0.0
 10
-3.7884487286241
 20
1.044880416390141
 30
0.0
 10
-3.7884487286241
 20
1.044880416390141
 30
0.0
 10
-3.7884487286241
 20
0.5230840839248635
 30
0.0
 10
-4.212955022026878
 20
0.0985710088380579
 30
0.0
 10
-4.7347377911241
 20
0.0985710088380579
 30
0.0
 10
-4.7347377911241
 20
0.0985710088380579
 30
0.0
 10
-4.889373750325489
 20
0.0985710088380579
 30
0.0
 10
-4.889373750325489
 20
0.0985710088380579
 30
0.0
 10
-5.245737682617155
 20
0.0985710088380579
 30
0.0
 10
-5.535668238172712
 20
-0.1913595467174976
 30
0.0
 10
-5.535668238172712
 20
-0.5477302606931921
 30
0.0
 10
-5.535668238172712
 20
-0.5477302606931921
 30
0.0
 10
-5.535668238172712
 20
-0.5555156339570809
 30
0.0
 10
-5.535668238172712
 20
-0.5555156339570809
 30
0.0
 10
-5.535668238172712
 20
-0.9118863479327753
 30
0.0
 10
-5.245737682617155
 20
-1.20181690348833
 30
0.0
 10
-4.889373750325489
 20
-1.20181690348833
 30
0.0
 10
-4.889373750325489
 20
-1.20181690348833
 30
0.0
 10
-4.7347377911241
 20
-1.20181690348833
 30
0.0
 10
-4.7347377911241
 20
-1.20181690348833
 30
0.0
 10
-4.212955022026878
 20
-1.20181690348833
 30
0.0
 10
-3.7884487286241
 20
-1.626329978575136
 30
0.0
 10
-3.7884487286241
 20
-2.148119529356386
 30
0.0
 10
-3.7884487286241
 20
-2.148119529356386
 30
0.0
 10
-3.7884487286241
 20
-2.155870994200136
 30
0.0
 10
-3.7884487286241
 20
-2.155870994200136
 30
0.0
 10
-3.7884487286241
 20
-2.677660544981386
 30
0.0
 10
-4.212955022026878
 20
-3.102173620068191
 30
0.0
 10
-4.7347377911241
 20
-3.102173620068191
 30
0.0
 10
-4.7347377911241
 20
-3.102173620068191
 30
0.0
 10
-4.889373750325489
 20
-3.102173620068191
 30
0.0
 10
-4.889373750325489
 20
-3.102173620068191
 30
0.0
 10
-5.245737682617155
 20
-3.102173620068191
 30
0.0
 10
-5.535668238172712
 20
-3.392104175623747
 30
0.0
 10
-5.535668238172712
 20
-3.748474889599416
 30
0.0
 10
-5.535668238172712
 20
-3.748474889599416
 30
0.0
 10
-5.535668238172712
 20
-3.754497025016083
 30
0.0
 10
-5.535668238172712
 20
-3.754497025016083
 30
0.0
 10
-5.535668238172712
 20
-4.110874520675805
 30
0.0
 10
-5.245737682617155
 20
-4.40080507623136
 30
0.0
 10
-4.889373750325489
 20
-4.40080507623136
 30
0.0
 10
-4.889373750325489
 20
-4.40080507623136
 30
0.0
 10
-4.7347377911241
 20
-4.40080507623136
 30
0.0
 10
-4.7347377911241
 20
-4.40080507623136
 30
0.0
 10
-4.212955022026878
 20
-4.40080507623136
 30
0.0
 10
-3.7884487286241
 20
-4.825311369634138
 30
0.0
 10
-3.7884487286241
 20
-5.347107702099391
 30
0.0
 10
-3.7884487286241
 20
-5.347107702099391
 30
0.0
 10
-3.7884487286241
 20
-5.354147090120224
 30
0.0
 10
-3.7884487286241
 20
-5.354147090120224
 30
0.0
 10
-3.7884487286241
 20
-5.875943422585502
 30
0.0
 10
-4.212955022026878
 20
-6.300449715988279
 30
0.0
 10
-4.7347377911241
 20
-6.300449715988279
 30
0.0
 10
-4.7347377911241
 20
-6.300449715988279
 30
0.0
 10
-4.889373750325489
 20
-6.300449715988279
 30
0.0
 10
-4.889373750325489
 20
-6.300449715988279
 30
0.0
 10
-5.245737682617155
 20
-6.300449715988279
 30
0.0
 10
-5.535668238172712
 20
-6.590380271543835
 30
0.0
 10
-5.535668238172712
 20
-6.946757767203557
 30
0.0
 10
-5.535668238172712
 20
-6.946757767203557
 30
0.0
 10
-5.535668238172712
 20
-7.326260805398002
 30
0.0
 10
-5.535668238172712
 20
-7.326260805398002
 30
0.0
 10
-5.535668238172712
 20
-7.326260805398002
 30
0.0
 10
-5.635657387478267
 20
-7.326260805398002
 30
0.0
 10
-5.635657387478267
 20
-7.326260805398002
 30
0.0
  0
ENDBLK
  5
103
330
100
100
AcDbEntity
  8
0
100
AcDbBlockEnd
  0
BLOCK
  5
107
330
105
100
AcDbEntity
  8
0
100
AcDbBlockBegin
  2
Block_19
 70
     0
 10
0.0
 20
0.0
 30
0.0
  3
Block_19
  1

  0
INSERT
  5
10A
330
105
100
AcDbEntity
  8
Layer 1
100
AcDbBlockReference
  2
Block_20
 10
0.0
 20
0.0
 30
0.0
  0
ENDBLK
  5
108
330
105
100
AcDbEntity
  8
0
100
AcDbBlockEnd
  0
BLOCK
  5
10B
330
109
100
AcDbEntity
  8
0
100
AcDbBlockBegin
  2
Block_20
 70
     0
 10
0.0
 20
0.0
 30
0.0
  3
Block_20
  1

  0
INSERT
  5
10E
330
109
100
AcDbEntity
  8
Layer 1
100
AcDbBlockReference
  2
Block_21
 10
0.0
 20
0.0
 30
0.0
  0
ENDBLK
  5
10C
330
109
100
AcDbEntity
  8
0
100
AcDbBlockEnd
  0
BLOCK
  5
10F
330
10D
100
AcDbEntity
  8
0
100
AcDbBlockBegin
  2
Block_21
 70
     0
 10
0.0
 20
0.0
 30
0.0
  3
Block_21
  1

  0
INSERT
  5
112
330
10D
100
AcDbEntity
  8
Layer 1
100
AcDbBlockReference
  2
Block_22
 10
0.0
 20
0.0
 30
0.0
  0
ENDBLK
  5
110
330
10D
100
AcDbEntity
  8
0
100
AcDbBlockEnd
  0
BLOCK
  5
113
330
111
100
AcDbEntity
  8
0
100
AcDbBlockBegin
  2
Block_22
 70
     0
 10
0.0
 20
0.0
 30
0.0
  3
Block_22
  1

  0
SPLINE
  5
115
330
111
100
AcDbEntity
  8
Layer 1
 62
   142
420
  2730722
370
    20
100
AcDbSpline
210
0.0
220
0.0
230
1.0
 70
    11
 71
     3
 72
   161
 73
   157
 74
     0
 42
0.0000000001
 43
0.0000000001
 40
0.0
 40
0.0
 40
0.0
 40
0.0
 40
1.0
 40
1.0
 40
1.0
 40
2.0
 40
2.0
 40
2.0
 40
3.0
 40
3.0
 40
3.0
 40
4.0
 40
4.0
 40
4.0
 40
5.0
 40
5.0
 40
5.0
 40
6.0
 40
6.0
 40
6.0
 40
7.0
 40
7.0
 40
7.0
 40
8.0
 40
8.0
 40
8.0
 40
9.0
 40
9.0
 40
9.0
 40
10.0
 40
10.0
 40
10.0
 40
11.0
 40
11.0
 40
11.0
 40
12.0
 40
12.0
 40
12.0
 40
13.0
 40
13.0
 40
13.0
 40
14.0
 40
14.0
 40
14.0
 40
15.0
 40
15.0
 40
15.0
 40
16.0
 40
16.0
 40
16.0
 40
17.0
 40
17.0
 40
17.0
 40
18.0
 40
18.0
 40
18.0
 40
19.0
 40
19.0
 40
19.0
 40
20.0
 40
20.0
 40
20.0
 40
21.0
 40
21.0
 40
21.0
 40
22.0
 40
22.0
 40
22.0
 40
23.0
 40
23.0
 40
23.0
 40
24.0
 40
24.0
 40
24.0
 40
25.0
 40
25.0
 40
25.0
 40
26.0
 40
26.0
 40
26.0
 40
27.0
 40
27.0
 40
27.0
 40
28.0
 40
28.0
 40
28.0
 40
29.0
 40
29.0
 40
29.0
 40
30.0
 40
30.0
 40
30.0
 40
31.0
 40
31.0
 40
31.0
 40
32.0
 40
32.0
 40
32.0
 40
33.0
 40
33.0
 40
33.0
 40
34.0
 40
34.0
 40
34.0
 40
35.0
 40
35.0
 40
35.0
 40
36.0
 40
36.0
 40
36.0
 40
37.0
 40
37.0
 40
37.0
 40
38.0
 40
38.0
 40
38.0
 40
39.0
 40
39.0
 40
39.0
 40
40.0
 40
40.0
 40
40.0
 40
41.0
 40
41.0
 40
41.0
 40
42.0
 40
42.0
 40
42.0
 40
43.0
 40
43.0
 40
43.0
 40
44.0
 40
44.0
 40
44.0
 40
45.0
 40
45.0
 40
45.0
 40
46.0
 40
46.0
 40
46.0
 40
47.0
 40
47.0
 40
47.0
 40
48.0
 40
48.0
 40
48.0
 40
49.0
 40
49.0
 40
49.0
 40
50.0
 40
50.0
 40
50.0
 40
51.0
 40
51.0
 40
51.0
 40
52.0
 40
52.0
 40
52.0
 40
52.0
 10
-5.835662812825489
 20
-7.326260805398002
 30
0.0
 10
-5.835662812825489
 20
-7.326260805398002
 30
0.0
 10
-5.835662812825489
 20
-6.946757767203557
 30
0.0
 10
-5.835662812825489
 20
-6.946757767203557
 30
0.0
 10
-5.835662812825489
 20
-6.424961434738279
 30
0.0
 10
-5.411156519422712
 20
-6.000455141335502
 30
0.0
 10
-4.889373750325489
 20
-6.000455141335502
 30
0.0
 10
-4.889373750325489
 20
-6.000455141335502
 30
0.0
 10
-4.7347377911241
 20
-6.000455141335502
 30
0.0
 10
-4.7347377911241
 20
-6.000455141335502
 30
0.0
 10
-4.378373858832434
 20
-6.000455141335502
 30
0.0
 10
-4.088443303276878
 20
-5.710524585779946
 30
0.0
 10
-4.088443303276878
 20
-5.354147090120224
 30
0.0
 10
-4.088443303276878
 20
-5.354147090120224
 30
0.0
 10
-4.088443303276878
 20
-5.347107702099391
 30
0.0
 10
-4.088443303276878
 20
-5.347107702099391
 30
0.0
 10
-4.088443303276878
 20
-4.990730206439693
 30
0.0
 10
-4.378373858832434
 20
-4.700799650884138
 30
0.0
 10
-4.7347377911241
 20
-4.700799650884138
 30
0.0
 10
-4.7347377911241
 20
-4.700799650884138
 30
0.0
 10
-4.889373750325489
 20
-4.700799650884138
 30
0.0
 10
-4.889373750325489
 20
-4.700799650884138
 30
0.0
 10
-5.411156519422712
 20
-4.700799650884138
 30
0.0
 10
-5.835662812825489
 20
-4.27629335748136
 30
0.0
 10
-5.835662812825489
 20
-3.75450380670011
 30
0.0
 10
-5.835662812825489
 20
-3.75450380670011
 30
0.0
 10
-5.835662812825489
 20
-3.748468107915388
 30
0.0
 10
-5.835662812825489
 20
-3.748468107915388
 30
0.0
 10
-5.835662812825489
 20
-3.226678557134164
 30
0.0
 10
-5.411156519422712
 20
-2.802165482047358
 30
0.0
 10
-4.889373750325489
 20
-2.802165482047358
 30
0.0
 10
-4.889373750325489
 20
-2.802165482047358
 30
0.0
 10
-4.7347377911241
 20
-2.802165482047358
 30
0.0
 10
-4.7347377911241
 20
-2.802165482047358
 30
0.0
 10
-4.378373858832434
 20
-2.802165482047358
 30
0.0
 10
-4.088443303276878
 20
-2.512234926491803
 30
0.0
 10
-4.088443303276878
 20
-2.155864212516108
 30
0.0
 10
-4.088443303276878
 20
-2.155864212516108
 30
0.0
 10
-4.088443303276878
 20
-2.148126311040414
 30
0.0
 10
-4.088443303276878
 20
-2.148126311040414
 30
0.0
 10
-4.088443303276878
 20
-1.791755597064719
 30
0.0
 10
-4.378373858832434
 20
-1.501825041509164
 30
0.0
 10
-4.7347377911241
 20
-1.501825041509164
 30
0.0
 10
-4.7347377911241
 20
-1.501825041509164
 30
0.0
 10
-4.889373750325489
 20
-1.501825041509164
 30
0.0
 10
-4.889373750325489
 20
-1.501825041509164
 30
0.0
 10
-5.411156519422712
 20
-1.501825041509164
 30
0.0
 10
-5.835662812825489
 20
-1.077311966422358
 30
0.0
 10
-5.835662812825489
 20
-0.5555224156411088
 30
0.0
 10
-5.835662812825489
 20
-0.5555224156411088
 30
0.0
 10
-5.835662812825489
 20
-0.5477234790091643
 30
0.0
 10
-5.835662812825489
 20
-0.5477234790091643
 30
0.0
 10
-5.835662812825489
 20
-0.0259339282279143
 30
0.0
 10
-5.411156519422712
 20
0.3985791468588912
 30
0.0
 10
-4.889373750325489
 20
0.3985791468588912
 30
0.0
 10
-4.889373750325489
 20
0.3985791468588912
 30
0.0
 10
-4.7347377911241
 20
0.3985791468588912
 30
0.0
 10
-4.7347377911241
 20
0.3985791468588912
 30
0.0
 10
-4.378373858832434
 20
0.3985791468588912
 30
0.0
 10
-4.088443303276878
 20
0.6885097024144468
 30
0.0
 10
-4.088443303276878
 20
1.044880416390141
 30
0.0
 10
-4.088443303276878
 20
1.044880416390141
 30
0.0
 10
-4.088443303276878
 20
1.05162819199778
 30
0.0
 10
-4.088443303276878
 20
1.05162819199778
 30
0.0
 10
-4.088443303276878
 20
1.407998905973474
 30
0.0
 10
-4.378373858832434
 20
1.697922679845002
 30
0.0
 10
-4.7347377911241
 20
1.697922679845002
 30
0.0
 10
-4.7347377911241
 20
1.697922679845002
 30
0.0
 10
-4.889373750325489
 20
1.697922679845002
 30
0.0
 10
-4.889373750325489
 20
1.697922679845002
 30
0.0
 10
-5.411156519422712
 20
1.697922679845002
 30
0.0
 10
-5.835662812825489
 20
2.122435754931808
 30
0.0
 10
-5.835662812825489
 20
2.644232087397085
 30
0.0
 10
-5.835662812825489
 20
2.644232087397085
 30
0.0
 10
-5.835662812825489
 20
3.023741907275557
 30
0.0
 10
-5.835662812825489
 20
3.023741907275557
 30
0.0
 10
-5.835662812825489
 20
3.023741907275557
 30
0.0
 10
-5.735673663519933
 20
3.023741907275557
 30
0.0
 10
-5.735673663519933
 20
3.023741907275557
 30
0.0
 10
-5.735673663519933
 20
3.023741907275557
 30
0.0
 10
-5.735673663519933
 20
2.644232087397085
 30
0.0
 10
-5.735673663519933
 20
2.644232087397085
 30
0.0
 10
-5.735673663519933
 20
2.177577627761668
 30
0.0
 10
-5.356021428276878
 20
1.797925392518613
 30
0.0
 10
-4.889373750325489
 20
1.797925392518613
 30
0.0
 10
-4.889373750325489
 20
1.797925392518613
 30
0.0
 10
-4.7347377911241
 20
1.797925392518613
 30
0.0
 10
-4.7347377911241
 20
1.797925392518613
 30
0.0
 10
-4.3232387676866
 20
1.797925392518613
 30
0.0
 10
-3.988454153971322
 20
1.463140778803335
 30
0.0
 10
-3.988454153971322
 20
1.05162819199778
 30
0.0
 10
-3.988454153971322
 20
1.05162819199778
 30
0.0
 10
-3.988454153971322
 20
1.044880416390141
 30
0.0
 10
-3.988454153971322
 20
1.044880416390141
 30
0.0
 10
-3.988454153971322
 20
0.6333678295845857
 30
0.0
 10
-4.3232387676866
 20
0.2985764341852801
 30
0.0
 10
-4.7347377911241
 20
0.2985764341852801
 30
0.0
 10
-4.7347377911241
 20
0.2985764341852801
 30
0.0
 10
-4.889373750325489
 20
0.2985764341852801
 30
0.0
 10
-4.889373750325489
 20
0.2985764341852801
 30
0.0
 10
-5.356021428276878
 20
0.2985764341852801
 30
0.0
 10
-5.735673663519933
 20
-0.0810690193737476
 30
0.0
 10
-5.735673663519933
 20
-0.5477234790091643
 30
0.0
 10
-5.735673663519933
 20
-0.5477234790091643
 30
0.0
 10
-5.735673663519933
 20
-0.5555224156411088
 30
0.0
 10
-5.735673663519933
 20
-0.5555224156411088
 30
0.0
 10
-5.735673663519933
 20
-1.022176875276525
 30
0.0
 10
-5.356021428276878
 20
-1.401822328835553
 30
0.0
 10
-4.889373750325489
 20
-1.401822328835553
 30
0.0
 10
-4.889373750325489
 20
-1.401822328835553
 30
0.0
 10
-4.7347377911241
 20
-1.401822328835553
 30
0.0
 10
-4.7347377911241
 20
-1.401822328835553
 30
0.0
 10
-4.3232387676866
 20
-1.401822328835553
 30
0.0
 10
-3.988454153971322
 20
-1.736613724234858
 30
0.0
 10
-3.988454153971322
 20
-2.148126311040414
 30
0.0
 10
-3.988454153971322
 20
-2.148126311040414
 30
0.0
 10
-3.988454153971322
 20
-2.155864212516108
 30
0.0
 10
-3.988454153971322
 20
-2.155864212516108
 30
0.0
 10
-3.988454153971322
 20
-2.567376799321664
 30
0.0
 10
-4.3232387676866
 20
-2.902168194720969
 30
0.0
 10
-4.7347377911241
 20
-2.902168194720969
 30
0.0
 10
-4.7347377911241
 20
-2.902168194720969
 30
0.0
 10
-4.889373750325489
 20
-2.902168194720969
 30
0.0
 10
-4.889373750325489
 20
-2.902168194720969
 30
0.0
 10
-5.356021428276878
 20
-2.902168194720969
 30
0.0
 10
-5.735673663519933
 20
-3.281813648279997
 30
0.0
 10
-5.735673663519933
 20
-3.748468107915388
 30
0.0
 10
-5.735673663519933
 20
-3.748468107915388
 30
0.0
 10
-5.735673663519933
 20
-3.75450380670011
 30
0.0
 10
-5.735673663519933
 20
-3.75450380670011
 30
0.0
 10
-5.735673663519933
 20
-4.221158266335527
 30
0.0
 10
-5.356021428276878
 20
-4.600810501578583
 30
0.0
 10
-4.889373750325489
 20
-4.600810501578583
 30
0.0
 10
-4.889373750325489
 20
-4.600810501578583
 30
0.0
 10
-4.7347377911241
 20
-4.600810501578583
 30
0.0
 10
-4.7347377911241
 20
-4.600810501578583
 30
0.0
 10
-4.3232387676866
 20
-4.600810501578583
 30
0.0
 10
-3.988454153971322
 20
-4.93559511529386
 30
0.0
 10
-3.988454153971322
 20
-5.347107702099391
 30
0.0
 10
-3.988454153971322
 20
-5.347107702099391
 30
0.0
 10
-3.988454153971322
 20
-5.354147090120224
 30
0.0
 10
-3.988454153971322
 20
-5.354147090120224
 30
0.0
 10
-3.988454153971322
 20
-5.765659676925779
 30
0.0
 10
-4.3232387676866
 20
-6.100444290641058
 30
0.0
 10
-4.7347377911241
 20
-6.100444290641058
 30
0.0
 10
-4.7347377911241
 20
-6.100444290641058
 30
0.0
 10
-4.889373750325489
 20
-6.100444290641058
 30
0.0
 10
-4.889373750325489
 20
-6.100444290641058
 30
0.0
 10
-5.356021428276878
 20
-6.100444290641058
 30
0.0
 10
-5.735673663519933
 20
-6.480096525884113
 30
0.0
 10
-5.735673663519933
 20
-6.946757767203557
 30
0.0
 10
-5.735673663519933
 20
-6.946757767203557
 30
0.0
 10
-5.735673663519933
 20
-7.326260805398002
 30
0.0
 10
-5.735673663519933
 20
-7.326260805398002
 30
0.0
 10
-5.735673663519933
 20
-7.326260805398002
 30
0.0
 10
-5.835662812825489
 20
-7.326260805398002
 30
0.0
 10
-5.835662812825489
 20
-7.326260805398002
 30
0.0
  0
ENDBLK
  5
114
330
111
100
AcDbEntity
  8
0
100
AcDbBlockEnd
  0
BLOCK
  5
118
330
116
100
AcDbEntity
  8
0
100
AcDbBlockBegin
  2
Block_23
 70
     0
 10
0.0
 20
0.0
 30
0.0
  3
Block_23
  1

  0
INSERT
  5
11B
330
116
100
AcDbEntity
  8
Layer 1
100
AcDbBlockReference
  2
Block_24
 10
0.0
 20
0.0
 30
0.0
  0
ENDBLK
  5
119
330
116
100
AcDbEntity
  8
0
100
AcDbBlockEnd
  0
BLOCK
  5
11C
330
11A
100
AcDbEntity
  8
0
100
AcDbBlockBegin
  2
Block_24
 70
     0
 10
0.0
 20
0.0
 30
0.0
  3
Block_24
  1

  0
INSERT
  5
11F
330
11A
100
AcDbEntity
  8
Layer 1
100
AcDbBlockReference
  2
Block_25
 10
0.0
 20
0.0
 30
0.0
  0
ENDBLK
  5
11D
330
11A
100
AcDbEntity
  8
0
100
AcDbBlockEnd
  0
BLOCK
  5
120
330
11E
100
AcDbEntity
  8
0
100
AcDbBlockBegin
  2
Block_25
 70
     0
 10
0.0
 20
0.0
 30
0.0
  3
Block_25
  1

  0
INSERT
  5
123
330
11E
100
AcDbEntity
  8
Layer 1
100
AcDbBlockReference
  2
Block_26
 10
0.0
 20
0.0
 30
0.0
  0
ENDBLK
  5
121
330
11E
100
AcDbEntity
  8
0
100
AcDbBlockEnd
  0
BLOCK
  5
124
330
122
100
AcDbEntity
  8
0
100
AcDbBlockBegin
  2
Block_26
 70
     0
 10
0.0
 20
0.0
 30
0.0
  3
Block_26
  1

  0
INSERT
  5
127
330
122
100
AcDbEntity
  8
Layer 1
100
AcDbBlockReference
  2
Block_27
 10
0.0
 20
0.0
 30
0.0
  0
ENDBLK
  5
125
330
122
100
AcDbEntity
  8
0
100
AcDbBlockEnd
  0
BLOCK
  5
128
330
126
100
AcDbEntity
  8
0
100
AcDbBlockBegin
  2
Block_27
 70
     0
 10
0.0
 20
0.0
 30
0.0
  3
Block_27
  1

  0
SPLINE
  5
12A
330
126
100
AcDbEntity
  8
Layer 1
 62
   142
420
  2730722
370
    20
100
AcDbSpline
210
0.0
220
0.0
230
1.0
 70
    11
 71
     3
 72
   161
 73
   157
 74
     0
 42
0.0000000001
 43
0.0000000001
 40
0.0
 40
0.0
 40
0.0
 40
0.0
 40
1.0
 40
1.0
 40
1.0
 40
2.0
 40
2.0
 40
2.0
 40
3.0
 40
3.0
 40
3.0
 40
4.0
 40
4.0
 40
4.0
 40
5.0
 40
5.0
 40
5.0
 40
6.0
 40
6.0
 40
6.0
 40
7.0
 40
7.0
 40
7.0
 40
8.0
 40
8.0
 40
8.0
 40
9.0
 40
9.0
 40
9.0
 40
10.0
 40
10.0
 40
10.0
 40
11.0
 40
11.0
 40
11.0
 40
12.0
 40
12.0
 40
12.0
 40
13.0
 40
13.0
 40
13.0
 40
14.0
 40
14.0
 40
14.0
 40
15.0
 40
15.0
 40
15.0
 40
16.0
 40
16.0
 40
16.0
 40
17.0
 40
17.0
 40
17.0
 40
18.0
 40
18.0
 40
18.0
 40
19.0
 40
19.0
 40
19.0
 40
20.0
 40
20.0
 40
20.0
 40
21.0
 40
21.0
 40
21.0
 40
22.0
 40
22.0
 40
22.0
 40
23.0
 40
23.0
 40
23.0
 40
24.0
 40
24.0
 40
24.0
 40
25.0
 40
25.0
 40
25.0
 40
26.0
 40
26.0
 40
26.0
 40
27.0
 40
27.0
 40
27.0
 40
28.0
 40
28.0
 40
28.0
 40
29.0
 40
29.0
 40
29.0
 40
30.0
 40
30.0
 40
30.0
 40
31.0
 40
31.0
 40
31.0
 40
32.0
 40
32.0
 40
32.0
 40
33.0
 40
33.0
 40
33.0
 40
34.0
 40
34.0
 40
34.0
 40
35.0
 40
35.0
 40
35.0
 40
36.0
 40
36.0
 40
36.0
 40
37.0
 40
37.0
 40
37.0
 40
38.0
 40
38.0
 40
38.0
 40
39.0
 40
39.0
 40
39.0
 40
40.0
 40
40.0
 40
40.0
 40
41.0
 40
41.0
 40
41.0
 40
42.0
 40
42.0
 40
42.0
 40
43.0
 40
43.0
 40
43.0
 40
44.0
 40
44.0
 40
44.0
 40
45.0
 40
45.0
 40
45.0
 40
46.0
 40
46.0
 40
46.0
 40
47.0
 40
47.0
 40
47.0
 40
48.0
 40
48.0
 40
48.0
 40
49.0
 40
49.0
 40
49.0
 40
50.0
 40
50.0
 40
50.0
 40
51.0
 40
51.0
 40
51.0
 40
52.0
 40
52.0
 40
52.0
 40
52.0
 10
-6.035668238172712
 20
-7.326260805398002
 30
0.0
 10
-6.035668238172712
 20
-7.326260805398002
 30
0.0
 10
-6.035668238172712
 20
-6.946744203835502
 30
0.0
 10
-6.035668238172712
 20
-6.946744203835502
 30
0.0
 10
-6.035668238172712
 20
-6.314677689078557
 30
0.0
 10
-5.521440265082433
 20
-5.800449715988279
 30
0.0
 10
-4.889373750325489
 20
-5.800449715988279
 30
0.0
 10
-4.889373750325489
 20
-5.800449715988279
 30
0.0
 10
-4.734751354492155
 20
-5.800449715988279
 30
0.0
 10
-4.734751354492155
 20
-5.800449715988279
 30
0.0
 10
-4.488657604492155
 20
-5.800449715988279
 30
0.0
 10
-4.2884487286241
 20
-5.600240840120224
 30
0.0
 10
-4.2884487286241
 20
-5.354147090120224
 30
0.0
 10
-4.2884487286241
 20
-5.354147090120224
 30
0.0
 10
-4.2884487286241
 20
-5.347107702099391
 30
0.0
 10
-4.2884487286241
 20
-5.347107702099391
 30
0.0
 10
-4.2884487286241
 20
-5.101013952099416
 30
0.0
 10
-4.488657604492155
 20
-4.90080507623136
 30
0.0
 10
-4.734751354492155
 20
-4.90080507623136
 30
0.0
 10
-4.734751354492155
 20
-4.90080507623136
 30
0.0
 10
-4.889373750325489
 20
-4.90080507623136
 30
0.0
 10
-4.889373750325489
 20
-4.90080507623136
 30
0.0
 10
-5.521440265082433
 20
-4.90080507623136
 30
0.0
 10
-6.035668238172712
 20
-4.386577103141083
 30
0.0
 10
-6.035668238172712
 20
-3.75450380670011
 30
0.0
 10
-6.035668238172712
 20
-3.75450380670011
 30
0.0
 10
-6.035668238172712
 20
-3.74846132623136
 30
0.0
 10
-6.035668238172712
 20
-3.74846132623136
 30
0.0
 10
-6.035668238172712
 20
-3.116388029790414
 30
0.0
 10
-5.521440265082433
 20
-2.602160056700136
 30
0.0
 10
-4.889373750325489
 20
-2.602160056700136
 30
0.0
 10
-4.889373750325489
 20
-2.602160056700136
 30
0.0
 10
-4.734751354492155
 20
-2.602160056700136
 30
0.0
 10
-4.734751354492155
 20
-2.602160056700136
 30
0.0
 10
-4.488657604492155
 20
-2.602160056700136
 30
0.0
 10
-4.2884487286241
 20
-2.40195118083208
 30
0.0
 10
-4.2884487286241
 20
-2.15585743083208
 30
0.0
 10
-4.2884487286241
 20
-2.15585743083208
 30
0.0
 10
-4.2884487286241
 20
-2.148133092724441
 30
0.0
 10
-4.2884487286241
 20
-2.148133092724441
 30
0.0
 10
-4.2884487286241
 20
-1.902039342724441
 30
0.0
 10
-4.488657604492155
 20
-1.701830466856386
 30
0.0
 10
-4.734751354492155
 20
-1.701830466856386
 30
0.0
 10
-4.734751354492155
 20
-1.701830466856386
 30
0.0
 10
-4.889373750325489
 20
-1.701830466856386
 30
0.0
 10
-4.889373750325489
 20
-1.701830466856386
 30
0.0
 10
-5.521440265082433
 20
-1.701830466856386
 30
0.0
 10
-6.035668238172712
 20
-1.187602493766108
 30
0.0
 10
-6.035668238172712
 20
-0.5555291973251366
 30
0.0
 10
-6.035668238172712
 20
-0.5555291973251366
 30
0.0
 10
-6.035668238172712
 20
-0.5477166973251366
 30
0.0
 10
-6.035668238172712
 20
-0.5477166973251366
 30
0.0
 10
-6.035668238172712
 20
0.0843565991158357
 30
0.0
 10
-5.521440265082433
 20
0.5985913538901412
 30
0.0
 10
-4.889373750325489
 20
0.5985913538901412
 30
0.0
 10
-4.889373750325489
 20
0.5985913538901412
 30
0.0
 10
-4.734751354492155
 20
0.5985913538901412
 30
0.0
 10
-4.734751354492155
 20
0.5985913538901412
 30
0.0
 10
-4.488657604492155
 20
0.5985913538901412
 30
0.0
 10
-4.2884487286241
 20
0.7988002297581968
 30
0.0
 10
-4.2884487286241
 20
1.044887198074168
 30
0.0
 10
-4.2884487286241
 20
1.044887198074168
 30
0.0
 10
-4.2884487286241
 20
1.051621410313752
 30
0.0
 10
-4.2884487286241
 20
1.051621410313752
 30
0.0
 10
-4.2884487286241
 20
1.297708378629724
 30
0.0
 10
-4.488657604492155
 20
1.49791725449778
 30
0.0
 10
-4.734751354492155
 20
1.49791725449778
 30
0.0
 10
-4.734751354492155
 20
1.49791725449778
 30
0.0
 10
-4.889373750325489
 20
1.49791725449778
 30
0.0
 10
-4.889373750325489
 20
1.49791725449778
 30
0.0
 10
-5.521440265082433
 20
1.49791725449778
 30
0.0
 10
-6.035668238172712
 20
2.012152009272085
 30
0.0
 10
-6.035668238172712
 20
2.644225305713057
 30
0.0
 10
-6.035668238172712
 20
2.644225305713057
 30
0.0
 10
-6.035668238172712
 20
3.023741907275557
 30
0.0
 10
-6.035668238172712
 20
3.023741907275557
 30
0.0
 10
-6.035668238172712
 20
3.023741907275557
 30
0.0
 10
-5.935679088867155
 20
3.023741907275557
 30
0.0
 10
-5.935679088867155
 20
3.023741907275557
 30
0.0
 10
-5.935679088867155
 20
3.023741907275557
 30
0.0
 10
-5.935679088867155
 20
2.644225305713057
 30
0.0
 10
-5.935679088867155
 20
2.644225305713057
 30
0.0
 10
-5.935679088867155
 20
2.067287100417918
 30
0.0
 10
-5.4663051739366
 20
1.597919967171391
 30
0.0
 10
-4.889373750325489
 20
1.597919967171391
 30
0.0
 10
-4.889373750325489
 20
1.597919967171391
 30
0.0
 10
-4.734751354492155
 20
1.597919967171391
 30
0.0
 10
-4.734751354492155
 20
1.597919967171391
 30
0.0
 10
-4.433522513346322
 20
1.597919967171391
 30
0.0
 10
-4.188459579318545
 20
1.352850251459585
 30
0.0
 10
-4.188459579318545
 20
1.051621410313752
 30
0.0
 10
-4.188459579318545
 20
1.051621410313752
 30
0.0
 10
-4.188459579318545
 20
1.044887198074168
 30
0.0
 10
-4.188459579318545
 20
1.044887198074168
 30
0.0
 10
-4.188459579318545
 20
0.7436583569283357
 30
0.0
 10
-4.433522513346322
 20
0.4985886412165302
 30
0.0
 10
-4.734751354492155
 20
0.4985886412165302
 30
0.0
 10
-4.734751354492155
 20
0.4985886412165302
 30
0.0
 10
-4.889373750325489
 20
0.4985886412165302
 30
0.0
 10
-4.889373750325489
 20
0.4985886412165302
 30
0.0
 10
-5.4663051739366
 20
0.4985886412165302
 30
0.0
 10
-5.935679088867155
 20
0.0292215079700024
 30
0.0
 10
-5.935679088867155
 20
-0.5477166973251366
 30
0.0
 10
-5.935679088867155
 20
-0.5477166973251366
 30
0.0
 10
-5.935679088867155
 20
-0.5555291973251366
 30
0.0
 10
-5.935679088867155
 20
-0.5555291973251366
 30
0.0
 10
-5.935679088867155
 20
-1.132460620936247
 30
0.0
 10
-5.4663051739366
 20
-1.601827754182775
 30
0.0
 10
-4.889373750325489
 20
-1.601827754182775
 30
0.0
 10
-4.889373750325489
 20
-1.601827754182775
 30
0.0
 10
-4.734751354492155
 20
-1.601827754182775
 30
0.0
 10
-4.734751354492155
 20
-1.601827754182775
 30
0.0
 10
-4.433522513346322
 20
-1.601827754182775
 30
0.0
 10
-4.188459579318545
 20
-1.84689746989458
 30
0.0
 10
-4.188459579318545
 20
-2.148133092724441
 30
0.0
 10
-4.188459579318545
 20
-2.148133092724441
 30
0.0
 10
-4.188459579318545
 20
-2.15585743083208
 30
0.0
 10
-4.188459579318545
 20
-2.15585743083208
 30
0.0
 10
-4.188459579318545
 20
-2.457093053661941
 30
0.0
 10
-4.433522513346322
 20
-2.702162769373747
 30
0.0
 10
-4.734751354492155
 20
-2.702162769373747
 30
0.0
 10
-4.734751354492155
 20
-2.702162769373747
 30
0.0
 10
-4.889373750325489
 20
-2.702162769373747
 30
0.0
 10
-4.889373750325489
 20
-2.702162769373747
 30
0.0
 10
-5.4663051739366
 20
-2.702162769373747
 30
0.0
 10
-5.935679088867155
 20
-3.171529902620275
 30
0.0
 10
-5.935679088867155
 20
-3.74846132623136
 30
0.0
 10
-5.935679088867155
 20
-3.74846132623136
 30
0.0
 10
-5.935679088867155
 20
-3.75450380670011
 30
0.0
 10
-5.935679088867155
 20
-3.75450380670011
 30
0.0
 10
-5.935679088867155
 20
-4.33144201199525
 30
0.0
 10
-5.4663051739366
 20
-4.800815926925805
 30
0.0
 10
-4.889373750325489
 20
-4.800815926925805
 30
0.0
 10
-4.889373750325489
 20
-4.800815926925805
 30
0.0
 10
-4.734751354492155
 20
-4.800815926925805
 30
0.0
 10
-4.734751354492155
 20
-4.800815926925805
 30
0.0
 10
-4.433522513346322
 20
-4.800815926925805
 30
0.0
 10
-4.188459579318545
 20
-5.045878860953583
 30
0.0
 10
-4.188459579318545
 20
-5.347107702099391
 30
0.0
 10
-4.188459579318545
 20
-5.347107702099391
 30
0.0
 10
-4.188459579318545
 20
-5.354147090120224
 30
0.0
 10
-4.188459579318545
 20
-5.354147090120224
 30
0.0
 10
-4.188459579318545
 20
-5.655375931266058
 30
0.0
 10
-4.433522513346322
 20
-5.900438865293835
 30
0.0
 10
-4.734751354492155
 20
-5.900438865293835
 30
0.0
 10
-4.734751354492155
 20
-5.900438865293835
 30
0.0
 10
-4.889373750325489
 20
-5.900438865293835
 30
0.0
 10
-4.889373750325489
 20
-5.900438865293835
 30
0.0
 10
-5.4663051739366
 20
-5.900438865293835
 30
0.0
 10
-5.935679088867155
 20
-6.369812780224391
 30
0.0
 10
-5.935679088867155
 20
-6.946744203835502
 30
0.0
 10
-5.935679088867155
 20
-6.946744203835502
 30
0.0
 10
-5.935679088867155
 20
-7.326260805398002
 30
0.0
 10
-5.935679088867155
 20
-7.326260805398002
 30
0.0
 10
-5.935679088867155
 20
-7.326260805398002
 30
0.0
 10
-6.035668238172712
 20
-7.326260805398002
 30
0.0
 10
-6.035668238172712
 20
-7.326260805398002
 30
0.0
  0
ENDBLK
  5
129
330
126
100
AcDbEntity
  8
0
100
AcDbBlockEnd
  0
BLOCK
  5
12D
330
12B
100
AcDbEntity
  8
0
100
AcDbBlockBegin
  2
Block_28
 70
     0
 10
0.0
 20
0.0
 30
0.0
  3
Block_28
  1

  0
INSERT
  5
130
330
12B
100
AcDbEntity
  8
Layer 1
100
AcDbBlockReference
  2
Block_29
 10
0.0
 20
0.0
 30
0.0
  0
ENDBLK
  5
12E
330
12B
100
AcDbEntity
  8
0
100
AcDbBlockEnd
  0
BLOCK
  5
131
330
12F
100
AcDbEntity
  8
0
100
AcDbBlockBegin
  2
Block_29
 70
     0
 10
0.0
 20
0.0
 30
0.0
  3
Block_29
  1

  0
INSERT
  5
134
330
12F
100
AcDbEntity
  8
Layer 1
100
AcDbBlockReference
  2
Block_30
 10
0.0
 20
0.0
 30
0.0
  0
ENDBLK
  5
132
330
12F
100
AcDbEntity
  8
0
100
AcDbBlockEnd
  0
BLOCK
  5
135
330
133
100
AcDbEntity
  8
0
100
AcDbBlockBegin
  2
Block_30
 70
     0
 10
0.0
 20
0.0
 30
0.0
  3
Block_30
  1

  0
INSERT
  5
138
330
133
100
AcDbEntity
  8
Layer 1
100
AcDbBlockReference
  2
Block_31
 10
0.0
 20
0.0
 30
0.0
  0
ENDBLK
  5
136
330
133
100
AcDbEntity
  8
0
100
AcDbBlockEnd
  0
BLOCK
  5
139
330
137
100
AcDbEntity
  8
0
100
AcDbBlockBegin
  2
Block_31
 70
     0
 10
0.0
 20
0.0
 30
0.0
  3
Block_31
  1

  0
INSERT
  5
13C
330
137
100
AcDbEntity
  8
Layer 1
100
AcDbBlockReference
  2
Block_32
 10
0.0
 20
0.0
 30
0.0
  0
ENDBLK
  5
13A
330
137
100
AcDbEntity
  8
0
100
AcDbBlockEnd
  0
BLOCK
  5
13D
330
13B
100
AcDbEntity
  8
0
100
AcDbBlockBegin
  2
Block_32
 70
     0
 10
0.0
 20
0.0
 30
0.0
  3
Block_32
  1

  0
SPLINE
  5
13F
330
13B
100
AcDbEntity
  8
Layer 1
 62
    93
420
  7454542
370
    20
100
AcDbSpline
210
0.0
220
0.0
230
1.0
 70
     9
 71
     3
 72
   161
 73
   157
 74
     0
 42
0.0000000001
 43
0.0000000001
 40
0.0
 40
0.0
 40
0.0
 40
0.0
 40
1.0
 40
1.0
 40
1.0
 40
2.0
 40
2.0
 40
2.0
 40
3.0
 40
3.0
 40
3.0
 40
4.0
 40
4.0
 40
4.0
 40
5.0
 40
5.0
 40
5.0
 40
6.0
 40
6.0
 40
6.0
 40
7.0
 40
7.0
 40
7.0
 40
8.0
 40
8.0
 40
8.0
 40
9.0
 40
9.0
 40
9.0
 40
10.0
 40
10.0
 40
10.0
 40
11.0
 40
11.0
 40
11.0
 40
12.0
 40
12.0
 40
12.0
 40
13.0
 40
13.0
 40
13.0
 40
14.0
 40
14.0
 40
14.0
 40
15.0
 40
15.0
 40
15.0
 40
16.0
 40
16.0
 40
16.0
 40
17.0
 40
17.0
 40
17.0
 40
18.0
 40
18.0
 40
18.0
 40
19.0
 40
19.0
 40
19.0
 40
20.0
 40
20.0
 40
20.0
 40
21.0
 40
21.0
 40
21.0
 40
22.0
 40
22.0
 40
22.0
 40
23.0
 40
23.0
 40
23.0
 40
24.0
 40
24.0
 40
24.0
 40
25.0
 40
25.0
 40
25.0
 40
26.0
 40
26.0
 40
26.0
 40
27.0
 40
27.0
 40
27.0
 40
28.0
 40
28.0
 40
28.0
 40
29.0
 40
29.0
 40
29.0
 40
30.0
 40
30.0
 40
30.0
 40
31.0
 40
31.0
 40
31.0
 40
32.0
 40
32.0
 40
32.0
 40
33.0
 40
33.0
 40
33.0
 40
34.0
 40
34.0
 40
34.0
 40
35.0
 40
35.0
 40
35.0
 40
36.0
 40
36.0
 40
36.0
 40
37.0
 40
37.0
 40
37.0
 40
38.0
 40
38.0
 40
38.0
 40
39.0
 40
39.0
 40
39.0
 40
40.0
 40
40.0
 40
40.0
 40
41.0
 40
41.0
 40
41.0
 40
42.0
 40
42.0
 40
42.0
 40
43.0
 40
43.0
 40
43.0
 40
44.0
 40
44.0
 40
44.0
 40
45.0
 40
45.0
 40
45.0
 40
46.0
 40
46.0
 40
46.0
 40
47.0
 40
47.0
 40
47.0
 40
48.0
 40
48.0
 40
48.0
 40
49.0
 40
49.0
 40
49.0
 40
50.0
 40
50.0
 40
50.0
 40
51.0
 40
51.0
 40
51.0
 40
52.0
 40
52.0
 40
52.0
 40
52.0
 10
-5.235664536404088
 20
2.644218735845343
 30
0.0
 10
-5.235664536404088
 20
2.452962526979035
 30
0.0
 10
-5.080620745270493
 20
2.297918735845491
 30
0.0
 10
-4.889364536404236
 20
2.297918735845491
 30
0.0
 10
-4.889364536404236
 20
2.297918735845491
 30
0.0
 10
-4.734735664958116
 20
2.297918735845491
 30
0.0
 10
-4.734735664958116
 20
2.297918735845491
 30
0.0
 10
-4.046423181243969
 20
2.297918735845491
 30
0.0
 10
-3.488435664957996
 20
1.739931219559568
 30
0.0
 10
-3.488435664957996
 20
1.051618735845371
 30
0.0
 10
-3.488435664957996
 20
1.051618735845371
 30
0.0
 10
-3.488435664957996
 20
1.044866448107591
 30
0.0
 10
-3.488435664957996
 20
1.044866448107591
 30
0.0
 10
-3.488435664957996
 20
0.3565539643934699
 30
0.0
 10
-4.046423181243818
 20
-0.2014335518924023
 30
0.0
 10
-4.734735664957989
 20
-0.2014335518924023
 30
0.0
 10
-4.734735664957989
 20
-0.2014335518924023
 30
0.0
 10
-4.88936453640411
 20
-0.2014335518924023
 30
0.0
 10
-4.88936453640411
 20
-0.2014335518924023
 30
0.0
 10
-5.080620745270493
 20
-0.2014335518924023
 30
0.0
 10
-5.235664536404088
 20
-0.3564773430259973
 30
0.0
 10
-5.235664536404088
 20
-0.5477335518923812
 30
0.0
 10
-5.235664536404088
 20
-0.5477335518923812
 30
0.0
 10
-5.235664536404088
 20
-0.5555294943289557
 30
0.0
 10
-5.235664536404088
 20
-0.5555294943289557
 30
0.0
 10
-5.235664536404088
 20
-0.7467857031952892
 30
0.0
 10
-5.080620745270493
 20
-0.9018294943288209
 30
0.0
 10
-4.889364536404236
 20
-0.9018294943287957
 30
0.0
 10
-4.889364536404236
 20
-0.9018294943287957
 30
0.0
 10
-4.734735664957838
 20
-0.9018294943287957
 30
0.0
 10
-4.734735664957838
 20
-0.9018294943287957
 30
0.0
 10
-4.046423181243818
 20
-0.9018294943287957
 30
0.0
 10
-3.488435664957996
 20
-1.459817010614566
 30
0.0
 10
-3.488435664957996
 20
-2.148129494328562
 30
0.0
 10
-3.488435664957996
 20
-2.148129494328562
 30
0.0
 10
-3.488435664957996
 20
-2.155876764165188
 30
0.0
 10
-3.488435664957996
 20
-2.155876764165188
 30
0.0
 10
-3.488435664957996
 20
-2.84418924787931
 30
0.0
 10
-4.046423181243969
 20
-3.402176764165233
 30
0.0
 10
-4.734735664957989
 20
-3.402176764165233
 30
0.0
 10
-4.734735664957989
 20
-3.402176764165233
 30
0.0
 10
-4.88936453640411
 20
-3.402176764165233
 30
0.0
 10
-4.88936453640411
 20
-3.402176764165233
 30
0.0
 10
-5.080620745270493
 20
-3.402176764165233
 30
0.0
 10
-5.235664536404088
 20
-3.557220555298777
 30
0.0
 10
-5.235664536404088
 20
-3.748476764165211
 30
0.0
 10
-5.235664536404088
 20
-3.748476764165211
 30
0.0
 10
-5.235664536404088
 20
-3.754506095293966
 30
0.0
 10
-5.235664536404088
 20
-3.754506095293966
 30
0.0
 10
-5.235664536404088
 20
-3.945762304160249
 30
0.0
 10
-5.08062074527062
 20
-4.100806095293819
 30
0.0
 10
-4.889364536404362
 20
-4.100806095294021
 30
0.0
 10
-4.889364536404362
 20
-4.100806095294021
 30
0.0
 10
-4.734735664956726
 20
-4.100806095294172
 30
0.0
 10
-4.734735664956726
 20
-4.100806095294172
 30
0.0
 10
-4.046423181243135
 20
-4.10080609529483
 30
0.0
 10
-3.488435664957996
 20
-4.6587936115805
 30
0.0
 10
-3.488435664957996
 20
-5.34710609529409
 30
0.0
 10
-3.488435664957996
 20
-5.34710609529409
 30
0.0
 10
-3.488435664957996
 20
-5.354145626748655
 30
0.0
 10
-3.488435664957996
 20
-5.354145626748655
 30
0.0
 10
-3.488435664957996
 20
-6.042458110462828
 30
0.0
 10
-4.046423181243969
 20
-6.600445626748751
 30
0.0
 10
-4.734735664957989
 20
-6.6004456267488
 30
0.0
 10
-4.734735664957989
 20
-6.6004456267488
 30
0.0
 10
-4.88936453640411
 20
-6.6004456267488
 30
0.0
 10
-4.88936453640411
 20
-6.6004456267488
 30
0.0
 10
-5.080620745270493
 20
-6.600445626748851
 30
0.0
 10
-5.235664536404088
 20
-6.755489417882421
 30
0.0
 10
-5.235664536404088
 20
-6.946745626748805
 30
0.0
 10
-5.235664536404088
 20
-6.946745626748805
 30
0.0
 10
-5.235664536404088
 20
-7.406255056063299
 30
0.0
 10
-5.235664536404088
 20
-7.406255056063299
 30
0.0
 10
-5.235664536404088
 20
-7.406255056063299
 30
0.0
 10
-6.135675387098532
 20
-7.406255056063299
 30
0.0
 10
-6.135675387098532
 20
-7.406255056063299
 30
0.0
 10
-6.135675387098532
 20
-7.406255056063299
 30
0.0
 10
-6.135675387098406
 20
-6.946748339422356
 30
0.0
 10
-6.135675387098406
 20
-6.946748339422356
 30
0.0
 10
-6.135675387098532
 20
-6.258435855708285
 30
0.0
 10
-5.57768787081271
 20
-5.700448339422361
 30
0.0
 10
-4.889375387098539
 20
-5.700448339422412
 30
0.0
 10
-4.889375387098539
 20
-5.700448339422412
 30
0.0
 10
-4.734746515652444
 20
-5.700448339422412
 30
0.0
 10
-4.734746515652444
 20
-5.700448339422412
 30
0.0
 10
-4.543490306786035
 20
-5.700448339422463
 30
0.0
 10
-4.38844651565244
 20
-5.545404548288843
 30
0.0
 10
-4.38844651565244
 20
-5.354148339422408
 30
0.0
 10
-4.38844651565244
 20
-5.354148339422408
 30
0.0
 10
-4.38844651565244
 20
-5.34710338262059
 30
0.0
 10
-4.38844651565244
 20
-5.34710338262059
 30
0.0
 10
-4.38844651565244
 20
-5.155847173754232
 30
0.0
 10
-4.543490306786035
 20
-5.000803382620611
 30
0.0
 10
-4.734746515652444
 20
-5.000803382620611
 30
0.0
 10
-4.734746515652444
 20
-5.000803382620611
 30
0.0
 10
-4.889375387098412
 20
-5.000803382620611
 30
0.0
 10
-4.889375387098412
 20
-5.000803382620611
 30
0.0
 10
-5.577687870812433
 20
-5.000803382620611
 30
0.0
 10
-6.135675387098254
 20
-4.442815866334941
 30
0.0
 10
-6.135675387098406
 20
-3.754503382620921
 30
0.0
 10
-6.135675387098406
 20
-3.754503382620921
 30
0.0
 10
-6.135675387098406
 20
-3.748465913470757
 30
0.0
 10
-6.135675387098406
 20
-3.748465913470757
 30
0.0
 10
-6.135675387098532
 20
-3.06015342975661
 30
0.0
 10
-5.577687870812559
 20
-2.502165913470637
 30
0.0
 10
-4.889375387098412
 20
-2.502165913470586
 30
0.0
 10
-4.889375387098412
 20
-2.502165913470586
 30
0.0
 10
-4.734746515652444
 20
-2.502165913470586
 30
0.0
 10
-4.734746515652444
 20
-2.502165913470586
 30
0.0
 10
-4.543490306786035
 20
-2.502165913470586
 30
0.0
 10
-4.38844651565244
 20
-2.347122122336966
 30
0.0
 10
-4.38844651565244
 20
-2.155865913470607
 30
0.0
 10
-4.38844651565244
 20
-2.155865913470607
 30
0.0
 10
-4.38844651565244
 20
-2.148140345023648
 30
0.0
 10
-4.38844651565244
 20
-2.148140345023648
 30
0.0
 10
-4.38844651565244
 20
-1.956884136157365
 30
0.0
 10
-4.543490306785908
 20
-1.801840345023795
 30
0.0
 10
-4.734746515652141
 20
-1.801840345023644
 30
0.0
 10
-4.734746515652141
 20
-1.801840345023644
 30
0.0
 10
-4.889375387098817
 20
-1.801840345023517
 30
0.0
 10
-4.889375387098817
 20
-1.801840345023517
 30
0.0
 10
-5.577687870812837
 20
-1.801840345022936
 30
0.0
 10
-6.135675387098532
 20
-1.243852828736812
 30
0.0
 10
-6.135675387098406
 20
-0.5555403450226397
 30
0.0
 10
-6.135675387098406
 20
-0.5555403450226397
 30
0.0
 10
-6.135675387098406
 20
-0.5477362645655023
 30
0.0
 10
-6.135675387098406
 20
-0.5477362645655023
 30
0.0
 10
-6.135675387098254
 20
0.1405762191484175
 30
0.0
 10
-5.577687870812559
 20
0.6985637354340371
 30
0.0
 10
-4.88937538709869
 20
0.6985637354340876
 30
0.0
 10
-4.88937538709869
 20
0.6985637354340876
 30
0.0
 10
-4.734746515652444
 20
0.6985637354340876
 30
0.0
 10
-4.734746515652444
 20
0.6985637354340876
 30
0.0
 10
-4.543490306786035
 20
0.6985637354340876
 30
0.0
 10
-4.38844651565244
 20
0.8536075265676572
 30
0.0
 10
-4.38844651565244
 20
1.044863735434041
 30
0.0
 10
-4.38844651565244
 20
1.044863735434041
 30
0.0
 10
-4.38844651565244
 20
1.051607885150916
 30
0.0
 10
-4.38844651565244
 20
1.051607885150916
 30
0.0
 10
-4.38844651565244
 20
1.242864094017148
 30
0.0
 10
-4.543490306785757
 20
1.397907885150617
 30
0.0
 10
-4.734746515652014
 20
1.397907885150768
 30
0.0
 10
-4.734746515652014
 20
1.397907885150768
 30
0.0
 10
-4.889375387099524
 20
1.39790788515092
 30
0.0
 10
-4.889375387099524
 20
1.39790788515092
 30
0.0
 10
-5.577687870813266
 20
1.397907885151476
 30
0.0
 10
-6.135675387098532
 20
1.955895401437197
 30
0.0
 10
-6.135675387098532
 20
2.644207885150914
 30
0.0
 10
-6.135675387098532
 20
2.644207885150914
 30
0.0
 10
-6.135675387098532
 20
3.103744943936665
 30
0.0
 10
-6.135675387098532
 20
3.103744943936665
 30
0.0
 10
-6.135675387098532
 20
3.103744943936665
 30
0.0
 10
-5.235664536404088
 20
3.103744943936665
 30
0.0
 10
-5.235664536404088
 20
3.103744943936665
 30
0.0
 10
-5.235664536404088
 20
3.103744943936665
 30
0.0
 10
-5.235664536404088
 20
2.644218735845343
 30
0.0
 10
-5.235664536404088
 20
2.644218735845343
 30
0.0
  0
ENDBLK
  5
13E
330
13B
100
AcDbEntity
  8
0
100
AcDbBlockEnd
  0
BLOCK
  5
142
330
140
100
AcDbEntity
  8
0
100
AcDbBlockBegin
  2
Block_33
 70
     0
 10
0.0
 20
0.0
 30
0.0
  3
Block_33
  1

  0
INSERT
  5
145
330
140
100
AcDbEntity
  8
Layer 1
100
AcDbBlockReference
  2
Block_34
 10
0.0
 20
0.0
 30
0.0
  0
MTEXT
  5
14E
330
140
100
AcDbEntity
  8
Layer 1
100
AcDbMText
 10
6.375194973415798
 20
1.32822757297092
 30
0.0
 40
0.2
 41
0.0
 46
0.0
 71
     7
 72
     1
  1
\C250;\c2105123;\FMyriad Pro|b0|i0|c1;\H0.019667;\W1.000000;Data In
 73
     1
 44
1.0
  0
MTEXT
  5
14F
330
140
100
AcDbEntity
  8
Layer 1
100
AcDbMText
 10
6.613551669650607
 20
1.32119411892361
 30
0.0
 40
0.2
 41
0.0
 46
0.0
 71
     7
 72
     1
  1
\C250;\c2105123;\FMyriad Pro|b0|i0|c1;\H0.019667;\W0.976349;5V
 73
     1
 44
1.0
  0
MTEXT
  5
150
330
140
100
AcDbEntity
  8
Layer 1
100
AcDbMText
 10
6.37730746799045
 20
1.467627631293402
 30
0.0
 40
0.2
 41
0.0
 46
0.0
 71
     7
 72
     1
  1
\C250;\c2105123;\FMyriad Pro|b0|i0|c1;\H0.019667;\W1.000000;GND
 73
     1
 44
1.0
  0
MTEXT
  5
151
330
140
100
AcDbEntity
  8
Layer 1
100
AcDbMText
 10
6.621760050455728
 20
1.467429690890841
 30
0.0
 40
0.2
 41
0.0
 46
0.0
 71
     7
 72
     1
  1
\C250;\c2105123;\FMyriad Pro|b0|i0|c1;\H0.019667;\W1.000000;Data Out
 73
     1
 44
1.0
  0
ENDBLK
  5
143
330
140
100
AcDbEntity
  8
0
100
AcDbBlockEnd
  0
BLOCK
  5
146
330
144
100
AcDbEntity
  8
0
100
AcDbBlockBegin
  2
Block_34
 70
     0
 10
0.0
 20
0.0
 30
0.0
  3
Block_34
  1

  0
CIRCLE
  5
148
330
144
100
AcDbEntity
  8
Layer 1
 62
   215
420
  9916062
370
     9
100
AcDbCircle
 10
6.534806884596339
 20
1.40696683569895
 30
0.0
 40
0.2250000000000069
  0
LWPOLYLINE
  5
149
330
144
100
AcDbEntity
  8
Layer 1
 62
   250
420
  2301728
370
     9
100
AcDbPolyline
 90
        4
 70
     1
 43
0.0
 10
6.564334443651457
 20
1.377439276643826
 10
6.505279325541222
 20
1.377439276643826
 10
6.505279325541222
 20
1.436494394754062
 10
6.564334443651457
 20
1.436494394754062
  0
SPLINE
  5
14A
330
144
100
AcDbEntity
  8
Layer 1
 62
   250
420
  2301728
370
     9
100
AcDbSpline
210
0.0
220
0.0
230
1.0
 70
    11
 71
     3
 72
    14
 73
    10
 74
     0
 42
0.0000000001
 43
0.0000000001
 40
0.0
 40
0.0
 40
0.0
 40
0.0
 40
1.0
 40
1.0
 40
1.0
 40
2.0
 40
2.0
 40
2.0
 40
3.0
 40
3.0
 40
3.0
 40
3.0
 10
6.485368697649644
 20
1.456503153417113
 30
0.0
 10
6.485368697649644
 20
1.456503153417113
 30
0.0
 10
6.485368697649644
 20
1.611928331097235
 30
0.0
 10
6.485368697649644
 20
1.611928331097235
 30
0.0
 10
6.408588166508151
 20
1.593534708592882
 30
0.0
 10
6.34820489963532
 20
1.533242146743923
 30
0.0
 10
6.329615456004678
 20
1.456503153417113
 30
0.0
 10
6.329615456004678
 20
1.456503153417113
 30
0.0
 10
6.485368697649644
 20
1.456503153417113
 30
0.0
 10
6.485368697649644
 20
1.456503153417113
 30
0.0
  0
SPLINE
  5
14B
330
144
100
AcDbEntity
  8
Layer 1
 62
   250
420
  2301728
370
     9
100
AcDbSpline
210
0.0
220
0.0
230
1.0
 70
    11
 71
     3
 72
    14
 73
    10
 74
     0
 42
0.0000000001
 43
0.0000000001
 40
0.0
 40
0.0
 40
0.0
 40
0.0
 40
1.0
 40
1.0
 40
1.0
 40
2.0
 40
2.0
 40
2.0
 40
3.0
 40
3.0
 40
3.0
 40
3.0
 10
6.584245071543035
 20
1.456503153417113
 30
0.0
 10
6.584245071543035
 20
1.456503153417113
 30
0.0
 10
6.584245071543035
 20
1.611928331097235
 30
0.0
 10
6.584245071543035
 20
1.611928331097235
 30
0.0
 10
6.661025602684528
 20
1.593534708592882
 30
0.0
 10
6.721408869557357
 20
1.533242146743923
 30
0.0
 10
6.739998313188
 20
1.456503153417113
 30
0.0
 10
6.739998313188
 20
1.456503153417113
 30
0.0
 10
6.584245071543035
 20
1.456503153417113
 30
0.0
 10
6.584245071543035
 20
1.456503153417113
 30
0.0
  0
SPLINE
  5
14C
330
144
100
AcDbEntity
  8
Layer 1
 62
   250
420
  2301728
370
     9
100
AcDbSpline
210
0.0
220
0.0
230
1.0
 70
    11
 71
     3
 72
    14
 73
    10
 74
     0
 42
0.0000000001
 43
0.0000000001
 40
0.0
 40
0.0
 40
0.0
 40
0.0
 40
1.0
 40
1.0
 40
1.0
 40
2.0
 40
2.0
 40
2.0
 40
3.0
 40
3.0
 40
3.0
 40
3.0
 10
6.485368697649644
 20
1.357430517980775
 30
0.0
 10
6.485368697649644
 20
1.357430517980775
 30
0.0
 10
6.485368697649644
 20
1.202005340300653
 30
0.0
 10
6.485368697649644
 20
1.202005340300653
 30
0.0
 10
6.408588166508151
 20
1.220398962804994
 30
0.0
 10
6.34820489963532
 20
1.280691524653952
 30
0.0
 10
6.329615456004678
 20
1.357430517980775
 30
0.0
 10
6.329615456004678
 20
1.357430517980775
 30
0.0
 10
6.485368697649644
 20
1.357430517980775
 30
0.0
 10
6.485368697649644
 20
1.357430517980775
 30
0.0
  0
SPLINE
  5
14D
330
144
100
AcDbEntity
  8
Layer 1
 62
   250
420
  2301728
370
     9
100
AcDbSpline
210
0.0
220
0.0
230
1.0
 70
    11
 71
     3
 72
    14
 73
    10
 74
     0
 42
0.0000000001
 43
0.0000000001
 40
0.0
 40
0.0
 40
0.0
 40
0.0
 40
1.0
 40
1.0
 40
1.0
 40
2.0
 40
2.0
 40
2.0
 40
3.0
 40
3.0
 40
3.0
 40
3.0
 10
6.584245071543035
 20
1.357430517980775
 30
0.0
 10
6.584245071543035
 20
1.357430517980775
 30
0.0
 10
6.584245071543035
 20
1.202005340300653
 30
0.0
 10
6.584245071543035
 20
1.202005340300653
 30
0.0
 10
6.661025602684528
 20
1.220398962804994
 30
0.0
 10
6.721408869557357
 20
1.280691524653952
 30
0.0
 10
6.739998313188
 20
1.357430517980775
 30
0.0
 10
6.739998313188
 20
1.357430517980775
 30
0.0
 10
6.584245071543035
 20
1.357430517980775
 30
0.0
 10
6.584245071543035
 20
1.357430517980775
 30
0.0
  0
ENDBLK
  5
147
330
144
100
AcDbEntity
  8
0
100
AcDbBlockEnd
  0
BLOCK
  5
158
330
156
100
AcDbEntity
  8
0
100
AcDbBlockBegin
  2
Block_35
 70
     0
 10
0.0
 20
0.0
 30
0.0
  3
Block_35
  1

  0
CIRCLE
  5
15A
330
156
100
AcDbEntity
  8
Layer 1
 62
    18
420
    65793
370
     9
100
AcDbCircle
 10
11.19449628371993
 20
2.423041153893886
 30
0.0
 40
0.0360009557247155
  0
CIRCLE
  5
15B
330
156
100
AcDbEntity
  8
Layer 1
 62
    18
420
    65793
370
     9
100
AcDbCircle
 10
11.19449625720775
 20
2.423041153893879
 30
0.0
 40
0.0215450357914063
  0
CIRCLE
  5
15C
330
156
100
AcDbEntity
  8
Layer 1
 62
    18
420
    65793
370
     9
100
AcDbCircle
 10
11.09441620683479
 20
2.42304118659953
 30
0.0
 40
0.0360009490966592
  0
CIRCLE
  5
15D
330
156
100
AcDbEntity
  8
Layer 1
 62
    18
420
    65793
370
     9
100
AcDbCircle
 10
11.09441620683477
 20
2.423041186599536
 30
0.0
 40
0.0215450424193994
  0
CIRCLE
  5
15E
330
156
100
AcDbEntity
  8
Layer 1
 62
    18
420
    65793
370
     9
100
AcDbCircle
 10
10.99405818986693
 20
2.423041219396029
 30
0.0
 40
0.0360009490966623
  0
CIRCLE
  5
15F
330
156
100
AcDbEntity
  8
Layer 1
 62
    18
420
    65793
370
     9
100
AcDbCircle
 10
10.99405818986694
 20
2.423041219396029
 30
0.0
 40
0.0215450424194436
  0
CIRCLE
  5
160
330
156
100
AcDbEntity
  8
Layer 1
 62
    18
420
    65793
370
     9
100
AcDbCircle
 10
10.8941172619801
 20
2.423041252056211
 30
0.0
 40
0.0360009490967066
  0
CIRCLE
  5
161
330
156
100
AcDbEntity
  8
Layer 1
 62
    18
420
    65793
370
     9
100
AcDbCircle
 10
10.89411726198008
 20
2.423041252056211
 30
0.0
 40
0.0215450424194752
  0
SPLINE
  5
162
330
156
100
AcDbEntity
  8
Layer 1
 62
    18
420
    65793
370
     9
100
AcDbSpline
210
0.0
220
0.0
230
1.0
 70
     9
 71
     3
 72
    29
 73
    25
 74
     0
 42
0.0000000001
 43
0.0000000001
 40
0.0
 40
0.0
 40
0.0
 40
0.0
 40
1.0
 40
1.0
 40
1.0
 40
2.0
 40
2.0
 40
2.0
 40
3.0
 40
3.0
 40
3.0
 40
4.0
 40
4.0
 40
4.0
 40
5.0
 40
5.0
 40
5.0
 40
6.0
 40
6.0
 40
6.0
 40
7.0
 40
7.0
 40
7.0
 40
8.0
 40
8.0
 40
8.0
 40
8.0
 10
11.39000736004492
 20
2.010857472128729
 30
0.0
 10
11.39000736004492
 20
2.010857472128729
 30
0.0
 10
11.30659195602417
 20
2.010857499388458
 30
0.0
 10
11.30659195602417
 20
2.010857499388458
 30
0.0
 10
11.30199017402083
 20
2.010857500892282
 30
0.0
 10
11.29825965925354
 20
2.014588018097672
 30
0.0
 10
11.29825966075739
 20
2.01918980010099
 30
0.0
 10
11.29825966075739
 20
2.01918980010099
 30
0.0
 10
11.29825968801712
 20
2.102605204121813
 30
0.0
 10
11.29825968801712
 20
2.102605204121813
 30
0.0
 10
11.29825968952097
 20
2.107206986125131
 30
0.0
 10
11.30199020672646
 20
2.110937500892292
 30
0.0
 10
11.3065919887298
 20
2.110937499388468
 30
0.0
 10
11.3065919887298
 20
2.110937499388468
 30
0.0
 10
11.39000739275055
 20
2.110937472128739
 30
0.0
 10
11.39000739275055
 20
2.110937472128739
 30
0.0
 10
11.39460917475389
 20
2.110937470624915
 30
0.0
 10
11.39833968952113
 20
2.1072069534195
 30
0.0
 10
11.39833968801728
 20
2.102605171416181
 30
0.0
 10
11.39833968801728
 20
2.102605171416181
 30
0.0
 10
11.39833966075755
 20
2.019189767395358
 30
0.0
 10
11.39833966075755
 20
2.019189767395358
 30
0.0
 10
11.3983396592537
 20
2.01458798539204
 30
0.0
 10
11.39460914204826
 20
2.010857470624904
 30
0.0
 10
11.39000736004492
 20
2.010857472128729
 30
0.0
  0
SPLINE
  5
163
330
156
100
AcDbEntity
  8
Layer 1
 62
    18
420
    65793
370
     9
100
AcDbSpline
210
0.0
220
0.0
230
1.0
 70
     9
 71
     3
 72
    29
 73
    25
 74
     0
 42
0.0000000001
 43
0.0000000001
 40
0.0
 40
0.0
 40
0.0
 40
0.0
 40
1.0
 40
1.0
 40
1.0
 40
2.0
 40
2.0
 40
2.0
 40
3.0
 40
3.0
 40
3.0
 40
4.0
 40
4.0
 40
4.0
 40
5.0
 40
5.0
 40
5.0
 40
6.0
 40
6.0
 40
6.0
 40
7.0
 40
7.0
 40
7.0
 40
8.0
 40
8.0
 40
8.0
 40
8.0
 10
11.18734536004492
 20
2.010857538357653
 30
0.0
 10
11.18734536004492
 20
2.010857538357653
 30
0.0
 10
11.10392995602418
 20
2.010857565617382
 30
0.0
 10
11.10392995602418
 20
2.010857565617382
 30
0.0
 10
11.09932817402083
 20
2.010857567121206
 30
0.0
 10
11.0955976592536
 20
2.01458808432657
 30
0.0
 10
11.09559766075745
 20
2.019189866329914
 30
0.0
 10
11.09559766075745
 20
2.019189866329914
 30
0.0
 10
11.09559768801718
 20
2.102605270350712
 30
0.0
 10
11.09559768801718
 20
2.102605270350712
 30
0.0
 10
11.09559768952102
 20
2.107207052354056
 30
0.0
 10
11.09932820672646
 20
2.110937567121216
 30
0.0
 10
11.10392998872981
 20
2.110937565617367
 30
0.0
 10
11.10392998872981
 20
2.110937565617367
 30
0.0
 10
11.18734539275056
 20
2.110937538357638
 30
0.0
 10
11.18734539275056
 20
2.110937538357638
 30
0.0
 10
11.1919471747539
 20
2.110937536853814
 30
0.0
 10
11.19567768952113
 20
2.107207019648399
 30
0.0
 10
11.19567768801728
 20
2.10260523764508
 30
0.0
 10
11.19567768801728
 20
2.10260523764508
 30
0.0
 10
11.19567766075756
 20
2.019189833624282
 30
0.0
 10
11.19567766075756
 20
2.019189833624282
 30
0.0
 10
11.19567765925371
 20
2.014588051620939
 30
0.0
 10
11.19194714204827
 20
2.010857536853803
 30
0.0
 10
11.18734536004492
 20
2.010857538357653
 30
0.0
  0
SPLINE
  5
164
330
156
100
AcDbEntity
  8
Layer 1
 62
    18
420
    65793
370
     9
100
AcDbSpline
210
0.0
220
0.0
230
1.0
 70
     9
 71
     3
 72
    29
 73
    25
 74
     0
 42
0.0000000001
 43
0.0000000001
 40
0.0
 40
0.0
 40
0.0
 40
0.0
 40
1.0
 40
1.0
 40
1.0
 40
2.0
 40
2.0
 40
2.0
 40
3.0
 40
3.0
 40
3.0
 40
4.0
 40
4.0
 40
4.0
 40
5.0
 40
5.0
 40
5.0
 40
6.0
 40
6.0
 40
6.0
 40
7.0
 40
7.0
 40
7.0
 40
8.0
 40
8.0
 40
8.0
 40
8.0
 10
10.98468335710468
 20
2.010857586928131
 30
0.0
 10
10.98468335710468
 20
2.010857586928131
 30
0.0
 10
10.90126795896448
 20
2.010857614187835
 30
0.0
 10
10.90126795896448
 20
2.010857614187835
 30
0.0
 10
10.89666617533728
 20
2.010857615691684
 30
0.0
 10
10.8929356592538
 20
2.014588134213517
 30
0.0
 10
10.8929356607576
 20
2.019189917840763
 30
0.0
 10
10.8929356607576
 20
2.019189917840763
 30
0.0
 10
10.89293568801738
 20
2.102605351297711
 30
0.0
 10
10.89293568801738
 20
2.102605351297711
 30
0.0
 10
10.89293568952118
 20
2.107207134924907
 30
0.0
 10
10.89666620804296
 20
2.110937651008485
 30
0.0
 10
10.90126799167016
 20
2.110937649504636
 30
0.0
 10
10.90126799167016
 20
2.110937649504636
 30
0.0
 10
10.98468338981032
 20
2.110937622244907
 30
0.0
 10
10.98468338981032
 20
2.110937622244907
 30
0.0
 10
10.98928517343746
 20
2.110937620741083
 30
0.0
 10
10.99301568952104
 20
2.107207102219275
 30
0.0
 10
10.99301568801719
 20
2.102605318592079
 30
0.0
 10
10.99301568801719
 20
2.102605318592079
 30
0.0
 10
10.99301566075746
 20
2.019189885135132
 30
0.0
 10
10.99301566075746
 20
2.019189885135132
 30
0.0
 10
10.99301565925361
 20
2.014588101507885
 30
0.0
 10
10.98928514073183
 20
2.010857585424282
 30
0.0
 10
10.98468335710468
 20
2.010857586928131
 30
0.0
  0
SPLINE
  5
165
330
156
100
AcDbEntity
  8
Layer 1
 62
    18
420
    65793
370
     9
100
AcDbSpline
210
0.0
220
0.0
230
1.0
 70
     9
 71
     3
 72
    29
 73
    25
 74
     0
 42
0.0000000001
 43
0.0000000001
 40
0.0
 40
0.0
 40
0.0
 40
0.0
 40
1.0
 40
1.0
 40
1.0
 40
2.0
 40
2.0
 40
2.0
 40
3.0
 40
3.0
 40
3.0
 40
4.0
 40
4.0
 40
4.0
 40
5.0
 40
5.0
 40
5.0
 40
6.0
 40
6.0
 40
6.0
 40
7.0
 40
7.0
 40
7.0
 40
8.0
 40
8.0
 40
8.0
 40
8.0
 10
10.78202135710464
 20
2.01085765315703
 30
0.0
 10
10.78202135710464
 20
2.01085765315703
 30
0.0
 10
10.69860595896443
 20
2.010857680416759
 30
0.0
 10
10.69860595896443
 20
2.010857680416759
 30
0.0
 10
10.69400417533729
 20
2.010857681920583
 30
0.0
 10
10.69027365925371
 20
2.014588200442416
 30
0.0
 10
10.69027366075756
 20
2.019189984069612
 30
0.0
 10
10.69027366075756
 20
2.019189984069612
 30
0.0
 10
10.69027368801729
 20
2.10260541752661
 30
0.0
 10
10.69027368801729
 20
2.10260541752661
 30
0.0
 10
10.69027368952114
 20
2.107207201153806
 30
0.0
 10
10.69400420804292
 20
2.110937717237435
 30
0.0
 10
10.69860599167006
 20
2.11093771573361
 30
0.0
 10
10.69860599167006
 20
2.11093771573361
 30
0.0
 10
10.78202138981027
 20
2.110937688473882
 30
0.0
 10
10.78202138981027
 20
2.110937688473882
 30
0.0
 10
10.78662317343747
 20
2.110937686970058
 30
0.0
 10
10.79035368952115
 20
2.107207168448174
 30
0.0
 10
10.7903536880173
 20
2.102605384820978
 30
0.0
 10
10.7903536880173
 20
2.102605384820978
 30
0.0
 10
10.79035366075757
 20
2.01918995136398
 30
0.0
 10
10.79035366075757
 20
2.01918995136398
 30
0.0
 10
10.79035365925372
 20
2.014588167736784
 30
0.0
 10
10.78662314073183
 20
2.010857651653206
 30
0.0
 10
10.78202135710464
 20
2.01085765315703
 30
0.0
  0
SPLINE
  5
166
330
156
100
AcDbEntity
  8
Layer 1
 62
    18
420
    65793
370
     9
100
AcDbSpline
210
0.0
220
0.0
230
1.0
 70
     9
 71
     3
 72
    29
 73
    25
 74
     0
 42
0.0000000001
 43
0.0000000001
 40
0.0
 40
0.0
 40
0.0
 40
0.0
 40
1.0
 40
1.0
 40
1.0
 40
2.0
 40
2.0
 40
2.0
 40
3.0
 40
3.0
 40
3.0
 40
4.0
 40
4.0
 40
4.0
 40
5.0
 40
5.0
 40
5.0
 40
6.0
 40
6.0
 40
6.0
 40
7.0
 40
7.0
 40
7.0
 40
8.0
 40
8.0
 40
8.0
 40
8.0
 10
11.39000741774058
 20
2.187407677241316
 30
0.0
 10
11.39000741774058
 20
2.187407677241316
 30
0.0
 10
11.30659201371984
 20
2.187407704501045
 30
0.0
 10
11.30659201371984
 20
2.187407704501045
 30
0.0
 10
11.30199023171649
 20
2.187407706004894
 30
0.0
 10
11.29825971694926
 20
2.191138223210234
 30
0.0
 10
11.29825971845311
 20
2.195740005213577
 30
0.0
 10
11.29825971845311
 20
2.195740005213577
 30
0.0
 10
11.29825974571283
 20
2.279155409234375
 30
0.0
 10
11.29825974571283
 20
2.279155409234375
 30
0.0
 10
11.29825974721669
 20
2.283757191237668
 30
0.0
 10
11.30199026442213
 20
2.287487706004905
 30
0.0
 10
11.30659204642547
 20
2.287487704501055
 30
0.0
 10
11.30659204642547
 20
2.287487704501055
 30
0.0
 10
11.39000745044622
 20
2.287487677241327
 30
0.0
 10
11.39000745044622
 20
2.287487677241327
 30
0.0
 10
11.39460923244956
 20
2.287487675737502
 30
0.0
 10
11.39833974721685
 20
2.283757158532037
 30
0.0
 10
11.398339745713
 20
2.279155376528744
 30
0.0
 10
11.398339745713
 20
2.279155376528744
 30
0.0
 10
11.39833971845327
 20
2.195739972507946
 30
0.0
 10
11.39833971845327
 20
2.195739972507946
 30
0.0
 10
11.39833971694942
 20
2.191138190504602
 30
0.0
 10
11.39460919974393
 20
2.187407675737467
 30
0.0
 10
11.39000741774058
 20
2.187407677241316
 30
0.0
  0
SPLINE
  5
167
330
156
100
AcDbEntity
  8
Layer 1
 62
    18
420
    65793
370
     9
100
AcDbSpline
210
0.0
220
0.0
230
1.0
 70
     9
 71
     3
 72
    29
 73
    25
 74
     0
 42
0.0000000001
 43
0.0000000001
 40
0.0
 40
0.0
 40
0.0
 40
0.0
 40
1.0
 40
1.0
 40
1.0
 40
2.0
 40
2.0
 40
2.0
 40
3.0
 40
3.0
 40
3.0
 40
4.0
 40
4.0
 40
4.0
 40
5.0
 40
5.0
 40
5.0
 40
6.0
 40
6.0
 40
6.0
 40
7.0
 40
7.0
 40
7.0
 40
8.0
 40
8.0
 40
8.0
 40
8.0
 10
11.18734541774064
 20
2.187407743470215
 30
0.0
 10
11.18734541774064
 20
2.187407743470215
 30
0.0
 10
11.10393001371989
 20
2.187407770729944
 30
0.0
 10
11.10393001371989
 20
2.187407770729944
 30
0.0
 10
11.09932823171655
 20
2.187407772233794
 30
0.0
 10
11.09559771694931
 20
2.191138289439158
 30
0.0
 10
11.09559771845316
 20
2.195740071442476
 30
0.0
 10
11.09559771845316
 20
2.195740071442476
 30
0.0
 10
11.09559774571289
 20
2.279155475463299
 30
0.0
 10
11.09559774571289
 20
2.279155475463299
 30
0.0
 10
11.09559774721669
 20
2.283757257466567
 30
0.0
 10
11.09932826442218
 20
2.287487772233804
 30
0.0
 10
11.10393004642552
 20
2.287487770729979
 30
0.0
 10
11.10393004642552
 20
2.287487770729979
 30
0.0
 10
11.18734545044627
 20
2.287487743470251
 30
0.0
 10
11.18734545044627
 20
2.287487743470251
 30
0.0
 10
11.19194723244961
 20
2.287487741966427
 30
0.0
 10
11.1956777472168
 20
2.283757224760936
 30
0.0
 10
11.195677745713
 20
2.279155442757668
 30
0.0
 10
11.195677745713
 20
2.279155442757668
 30
0.0
 10
11.19567771845327
 20
2.195740038736845
 30
0.0
 10
11.19567771845327
 20
2.195740038736845
 30
0.0
 10
11.19567771694942
 20
2.191138256733526
 30
0.0
 10
11.19194719974398
 20
2.187407741966366
 30
0.0
 10
11.18734541774064
 20
2.187407743470215
 30
0.0
  0
SPLINE
  5
168
330
156
100
AcDbEntity
  8
Layer 1
 62
    18
420
    65793
370
     9
100
AcDbSpline
210
0.0
220
0.0
230
1.0
 70
     9
 71
     3
 72
    29
 73
    25
 74
     0
 42
0.0000000001
 43
0.0000000001
 40
0.0
 40
0.0
 40
0.0
 40
0.0
 40
1.0
 40
1.0
 40
1.0
 40
2.0
 40
2.0
 40
2.0
 40
3.0
 40
3.0
 40
3.0
 40
4.0
 40
4.0
 40
4.0
 40
5.0
 40
5.0
 40
5.0
 40
6.0
 40
6.0
 40
6.0
 40
7.0
 40
7.0
 40
7.0
 40
8.0
 40
8.0
 40
8.0
 40
8.0
 10
10.9846834148004
 20
2.187407792040719
 30
0.0
 10
10.9846834148004
 20
2.187407792040719
 30
0.0
 10
10.90126801666019
 20
2.187407819300447
 30
0.0
 10
10.90126801666019
 20
2.187407819300447
 30
0.0
 10
10.896666233033
 20
2.187407820804297
 30
0.0
 10
10.89293571694947
 20
2.191138339326079
 30
0.0
 10
10.89293571845332
 20
2.195740122953325
 30
0.0
 10
10.89293571845332
 20
2.195740122953325
 30
0.0
 10
10.89293574571305
 20
2.279155556410298
 30
0.0
 10
10.89293574571305
 20
2.279155556410298
 30
0.0
 10
10.8929357472169
 20
2.283757340037494
 30
0.0
 10
10.89666626573863
 20
2.287487856121047
 30
0.0
 10
10.90126804936582
 20
2.287487854617223
 30
0.0
 10
10.90126804936582
 20
2.287487854617223
 30
0.0
 10
10.98468344750603
 20
2.287487827357495
 30
0.0
 10
10.98468344750603
 20
2.287487827357495
 30
0.0
 10
10.98928523113318
 20
2.28748782585367
 30
0.0
 10
10.99301574721676
 20
2.283757307331863
 30
0.0
 10
10.99301574571291
 20
2.279155523704667
 30
0.0
 10
10.99301574571291
 20
2.279155523704667
 30
0.0
 10
10.99301571845318
 20
2.195740090247694
 30
0.0
 10
10.99301571845318
 20
2.195740090247694
 30
0.0
 10
10.99301571694933
 20
2.191138306620448
 30
0.0
 10
10.98928519842755
 20
2.187407790536894
 30
0.0
 10
10.9846834148004
 20
2.187407792040719
 30
0.0
  0
SPLINE
  5
169
330
156
100
AcDbEntity
  8
Layer 1
 62
    18
420
    65793
370
     9
100
AcDbSpline
210
0.0
220
0.0
230
1.0
 70
     9
 71
     3
 72
    29
 73
    25
 74
     0
 42
0.0000000001
 43
0.0000000001
 40
0.0
 40
0.0
 40
0.0
 40
0.0
 40
1.0
 40
1.0
 40
1.0
 40
2.0
 40
2.0
 40
2.0
 40
3.0
 40
3.0
 40
3.0
 40
4.0
 40
4.0
 40
4.0
 40
5.0
 40
5.0
 40
5.0
 40
6.0
 40
6.0
 40
6.0
 40
7.0
 40
7.0
 40
7.0
 40
8.0
 40
8.0
 40
8.0
 40
8.0
 10
10.78202141480031
 20
2.187407858269643
 30
0.0
 10
10.78202141480031
 20
2.187407858269643
 30
0.0
 10
10.69860601666015
 20
2.187407885529347
 30
0.0
 10
10.69860601666015
 20
2.187407885529347
 30
0.0
 10
10.694004233033
 20
2.187407887033196
 30
0.0
 10
10.69027371694942
 20
2.191138405554978
 30
0.0
 10
10.69027371845322
 20
2.195740189182174
 30
0.0
 10
10.69027371845322
 20
2.195740189182174
 30
0.0
 10
10.690273745713
 20
2.279155622639223
 30
0.0
 10
10.690273745713
 20
2.279155622639223
 30
0.0
 10
10.6902737472168
 20
2.283757406266418
 30
0.0
 10
10.69400426573864
 20
2.287487922350022
 30
0.0
 10
10.69860604936578
 20
2.287487920846198
 30
0.0
 10
10.69860604936578
 20
2.287487920846198
 30
0.0
 10
10.78202144750599
 20
2.287487893586469
 30
0.0
 10
10.78202144750599
 20
2.287487893586469
 30
0.0
 10
10.78662323113318
 20
2.28748789208262
 30
0.0
 10
10.79035374721681
 20
2.283757373560787
 30
0.0
 10
10.79035374571301
 20
2.279155589933591
 30
0.0
 10
10.79035374571301
 20
2.279155589933591
 30
0.0
 10
10.79035371845323
 20
2.195740156476543
 30
0.0
 10
10.79035371845323
 20
2.195740156476543
 30
0.0
 10
10.79035371694944
 20
2.191138372849346
 30
0.0
 10
10.7866231984275
 20
2.187407856765793
 30
0.0
 10
10.78202141480031
 20
2.187407858269643
 30
0.0
  0
SPLINE
  5
16A
330
156
100
AcDbEntity
  8
Layer 1
 62
   215
420
  9981598
370
     9
100
AcDbSpline
210
0.0
220
0.0
230
1.0
 70
     9
 71
     3
 72
    53
 73
    49
 74
     0
 42
0.0000000001
 43
0.0000000001
 40
0.0
 40
0.0
 40
0.0
 40
0.0
 40
1.0
 40
1.0
 40
1.0
 40
2.0
 40
2.0
 40
2.0
 40
3.0
 40
3.0
 40
3.0
 40
4.0
 40
4.0
 40
4.0
 40
5.0
 40
5.0
 40
5.0
 40
6.0
 40
6.0
 40
6.0
 40
7.0
 40
7.0
 40
7.0
 40
8.0
 40
8.0
 40
8.0
 40
9.0
 40
9.0
 40
9.0
 40
10.0
 40
10.0
 40
10.0
 40
11.0
 40
11.0
 40
11.0
 40
12.0
 40
12.0
 40
12.0
 40
13.0
 40
13.0
 40
13.0
 40
14.0
 40
14.0
 40
14.0
 40
15.0
 40
15.0
 40
15.0
 40
16.0
 40
16.0
 40
16.0
 40
16.0
 10
11.42836365610563
 20
2.004954601311548
 30
0.0
 10
11.42836365610563
 20
2.004954601311548
 30
0.0
 10
11.42836374717545
 20
2.283630496203752
 30
0.0
 10
11.42836374717545
 20
2.283630496203752
 30
0.0
 10
11.42836376051562
 20
2.324451621732059
 30
0.0
 10
11.39527171069686
 20
2.357543693179435
 30
0.0
 10
11.3544505851686
 20
2.35754370651955
 30
0.0
 10
11.3544505851686
 20
2.35754370651955
 30
0.0
 10
11.35445043734211
 20
2.3575437065196
 30
0.0
 10
11.35445043734211
 20
2.3575437065196
 30
0.0
 10
11.31362931181365
 20
2.357543719859765
 30
0.0
 10
11.2805372619951
 20
2.390635791307065
 30
0.0
 10
11.28053727533521
 20
2.431456916835372
 30
0.0
 10
11.28053727533521
 20
2.431456916835372
 30
0.0
 10
11.28053727654828
 20
2.435168888783828
 30
0.0
 10
11.28053727654828
 20
2.435168888783828
 30
0.0
 10
11.28053728988839
 20
2.47599001431211
 30
0.0
 10
11.24744524006968
 20
2.50908208575946
 30
0.0
 10
11.20662411454127
 20
2.509082099099575
 30
0.0
 10
11.20662411454127
 20
2.509082099099575
 30
0.0
 10
10.88198952716251
 20
2.509082205188494
 30
0.0
 10
10.88198952716251
 20
2.509082205188494
 30
0.0
 10
10.8411684016341
 20
2.509082218528659
 30
0.0
 10
10.8080763301868
 20
2.475990168709952
 30
0.0
 10
10.80807631684668
 20
2.435169043181645
 30
0.0
 10
10.80807631684668
 20
2.435169043181645
 30
0.0
 10
10.80807631563362
 20
2.431457071233214
 30
0.0
 10
10.80807631563362
 20
2.431457071233214
 30
0.0
 10
10.80807630229345
 20
2.390635945704906
 30
0.0
 10
10.7749842308461
 20
2.357543895886199
 30
0.0
 10
10.73416310531779
 20
2.357543909226365
 30
0.0
 10
10.73416310531779
 20
2.357543909226365
 30
0.0
 10
10.73416295749131
 20
2.35754390922639
 30
0.0
 10
10.73416295749131
 20
2.35754390922639
 30
0.0
 10
10.693341831963
 20
2.35754392256653
 30
0.0
 10
10.6602497605157
 20
2.324451872747797
 30
0.0
 10
10.66024974717553
 20
2.28363074721949
 30
0.0
 10
10.66024974717553
 20
2.28363074721949
 30
0.0
 10
10.66024965610571
 20
2.004954852327285
 30
0.0
 10
10.66024965610571
 20
2.004954852327285
 30
0.0
 10
10.66024965175221
 20
1.991633113608246
 30
0.0
 10
10.67104905122136
 20
1.980833707080654
 30
0.0
 10
10.68437078994045
 20
1.980833702727156
 30
0.0
 10
10.68437078994045
 20
1.980833702727156
 30
0.0
 10
11.40424250650545
 20
1.980833467476751
 30
0.0
 10
11.40424250650545
 20
1.980833467476751
 30
0.0
 10
11.41756424522454
 20
1.980833463123303
 30
0.0
 10
11.42836365175213
 20
1.991632862592508
 30
0.0
 10
11.42836365610563
 20
2.004954601311548
 30
0.0
  0
LWPOLYLINE
  5
16B
330
156
100
AcDbEntity
  8
Layer 1
 62
    93
420
  7454542
370
     9
100
AcDbPolyline
 90
        1
 70
     0
 43
0.0
 10
10.74040178272121
 20
2.060827997440545
  0
ENDBLK
  5
159
330
156
100
AcDbEntity
  8
0
100
AcDbBlockEnd
  0
BLOCK
  5
16E
330
16C
100
AcDbEntity
  8
0
100
AcDbBlockBegin
  2
Block_36
 70
     0
 10
0.0
 20
0.0
 30
0.0
  3
Block_36
  1

  0
CIRCLE
  5
170
330
16C
100
AcDbEntity
  8
Layer 1
 62
    18
420
    65793
370
     9
100
AcDbCircle
 10
10.89216731127638
 20
-6.170514730138354
 30
0.0
 40
0.0360009557247155
  0
CIRCLE
  5
171
330
16C
100
AcDbEntity
  8
Layer 1
 62
    18
420
    65793
370
     9
100
AcDbCircle
 10
10.89216733778857
 20
-6.170514730138354
 30
0.0
 40
0.0215450357913968
  0
CIRCLE
  5
172
330
16C
100
AcDbEntity
  8
Layer 1
 62
    18
420
    65793
370
     9
100
AcDbCircle
 10
10.99224738816152
 20
-6.17051469747677
 30
0.0
 40
0.0360009490966592
  0
CIRCLE
  5
173
330
16C
100
AcDbEntity
  8
Layer 1
 62
    18
420
    65793
370
     9
100
AcDbCircle
 10
10.99224738816155
 20
-6.170514697476783
 30
0.0
 40
0.0215450424193899
  0
CIRCLE
  5
174
330
16C
100
AcDbEntity
  8
Layer 1
 62
    18
420
    65793
370
     9
100
AcDbCircle
 10
11.09260540512939
 20
-6.170514664724501
 30
0.0
 40
0.0360009490966529
  0
CIRCLE
  5
175
330
16C
100
AcDbEntity
  8
Layer 1
 62
    18
420
    65793
370
     9
100
AcDbCircle
 10
11.09260540512938
 20
-6.170514664724501
 30
0.0
 40
0.0215450424194373
  0
CIRCLE
  5
176
330
16C
100
AcDbEntity
  8
Layer 1
 62
    18
420
    65793
370
     9
100
AcDbCircle
 10
11.19254633301622
 20
-6.170514632108329
 30
0.0
 40
0.0360009490966971
  0
CIRCLE
  5
177
330
16C
100
AcDbEntity
  8
Layer 1
 62
    18
420
    65793
370
     9
100
AcDbCircle
 10
11.19254633301624
 20
-6.170514632108329
 30
0.0
 40
0.0215450424194689
  0
SPLINE
  5
178
330
16C
100
AcDbEntity
  8
Layer 1
 62
    18
420
    65793
370
     9
100
AcDbSpline
210
0.0
220
0.0
230
1.0
 70
     9
 71
     3
 72
    29
 73
    25
 74
     0
 42
0.0000000001
 43
0.0000000001
 40
0.0
 40
0.0
 40
0.0
 40
0.0
 40
1.0
 40
1.0
 40
1.0
 40
2.0
 40
2.0
 40
2.0
 40
3.0
 40
3.0
 40
3.0
 40
4.0
 40
4.0
 40
4.0
 40
5.0
 40
5.0
 40
5.0
 40
6.0
 40
6.0
 40
6.0
 40
7.0
 40
7.0
 40
7.0
 40
8.0
 40
8.0
 40
8.0
 40
8.0
 10
10.69665596573392
 20
-5.75833117607125
 30
0.0
 10
10.69665596573392
 20
-5.75833117607125
 30
0.0
 10
10.78007136975467
 20
-5.758331148848254
 30
0.0
 10
10.78007136975467
 20
-5.758331148848254
 30
0.0
 10
10.78467315175801
 20
-5.758331147346425
 30
0.0
 10
10.78840366896189
 20
-5.762061662115229
 30
0.0
 10
10.78840367046369
 20
-5.766663444118521
 30
0.0
 10
10.78840367046369
 20
-5.766663444118521
 30
0.0
 10
10.78840369768669
 20
-5.85007884813937
 30
0.0
 10
10.78840369768669
 20
-5.85007884813937
 30
0.0
 10
10.78840369918847
 20
-5.854680630142663
 30
0.0
 10
10.78467318441956
 20
-5.858411147346436
 30
0.0
 10
10.78007140241622
 20
-5.858411148848264
 30
0.0
 10
10.78007140241622
 20
-5.858411148848264
 30
0.0
 10
10.69665599839547
 20
-5.85841117607126
 30
0.0
 10
10.69665599839547
 20
-5.85841117607126
 30
0.0
 10
10.69205421639213
 20
-5.858411177573088
 30
0.0
 10
10.6883236991883
 20
-5.854680662804235
 30
0.0
 10
10.68832369768653
 20
-5.850078880800942
 30
0.0
 10
10.68832369768653
 20
-5.850078880800942
 30
0.0
 10
10.68832367046353
 20
-5.766663476780093
 30
0.0
 10
10.68832367046353
 20
-5.766663476780093
 30
0.0
 10
10.68832366896173
 20
-5.7620616947768
 30
0.0
 10
10.69205418373058
 20
-5.758331177573078
 30
0.0
 10
10.69665596573392
 20
-5.75833117607125
 30
0.0
  0
SPLINE
  5
179
330
16C
100
AcDbEntity
  8
Layer 1
 62
    18
420
    65793
370
     9
100
AcDbSpline
210
0.0
220
0.0
230
1.0
 70
     9
 71
     3
 72
    29
 73
    25
 74
     0
 42
0.0000000001
 43
0.0000000001
 40
0.0
 40
0.0
 40
0.0
 40
0.0
 40
1.0
 40
1.0
 40
1.0
 40
2.0
 40
2.0
 40
2.0
 40
3.0
 40
3.0
 40
3.0
 40
4.0
 40
4.0
 40
4.0
 40
5.0
 40
5.0
 40
5.0
 40
6.0
 40
6.0
 40
6.0
 40
7.0
 40
7.0
 40
7.0
 40
8.0
 40
8.0
 40
8.0
 40
8.0
 10
10.89931796573392
 20
-5.758331109931583
 30
0.0
 10
10.89931796573392
 20
-5.758331109931583
 30
0.0
 10
10.98273336975467
 20
-5.758331082708637
 30
0.0
 10
10.98273336975467
 20
-5.758331082708637
 30
0.0
 10
10.98733515175801
 20
-5.758331081206809
 30
0.0
 10
10.99106566896183
 20
-5.762061595975561
 30
0.0
 10
10.99106567046364
 20
-5.766663377978905
 30
0.0
 10
10.99106567046364
 20
-5.766663377978905
 30
0.0
 10
10.99106569768663
 20
-5.850078781999703
 30
0.0
 10
10.99106569768663
 20
-5.850078781999703
 30
0.0
 10
10.99106569918841
 20
-5.854680564003047
 30
0.0
 10
10.98733518441956
 20
-5.858411081206819
 30
0.0
 10
10.98273340241621
 20
-5.858411082708597
 30
0.0
 10
10.98273340241621
 20
-5.858411082708597
 30
0.0
 10
10.89931799839547
 20
-5.858411109931592
 30
0.0
 10
10.89931799839547
 20
-5.858411109931592
 30
0.0
 10
10.89471621639212
 20
-5.85841111143342
 30
0.0
 10
10.8909856991883
 20
-5.854680596664567
 30
0.0
 10
10.89098569768652
 20
-5.850078814661274
 30
0.0
 10
10.89098569768652
 20
-5.850078814661274
 30
0.0
 10
10.89098567046352
 20
-5.766663410640476
 30
0.0
 10
10.89098567046352
 20
-5.766663410640476
 30
0.0
 10
10.89098566896172
 20
-5.762061628637133
 30
0.0
 10
10.89471618373058
 20
-5.758331111433411
 30
0.0
 10
10.89931796573392
 20
-5.758331109931583
 30
0.0
  0
SPLINE
  5
17A
330
16C
100
AcDbEntity
  8
Layer 1
 62
    18
420
    65793
370
     9
100
AcDbSpline
210
0.0
220
0.0
230
1.0
 70
     9
 71
     3
 72
    29
 73
    25
 74
     0
 42
0.0000000001
 43
0.0000000001
 40
0.0
 40
0.0
 40
0.0
 40
0.0
 40
1.0
 40
1.0
 40
1.0
 40
2.0
 40
2.0
 40
2.0
 40
3.0
 40
3.0
 40
3.0
 40
4.0
 40
4.0
 40
4.0
 40
5.0
 40
5.0
 40
5.0
 40
6.0
 40
6.0
 40
6.0
 40
7.0
 40
7.0
 40
7.0
 40
8.0
 40
8.0
 40
8.0
 40
8.0
 10
11.10197996867413
 20
-5.758331026133519
 30
0.0
 10
11.10197996867413
 20
-5.758331026133519
 30
0.0
 10
11.18539536681434
 20
-5.758330998910524
 30
0.0
 10
11.18539536681434
 20
-5.758330998910524
 30
0.0
 10
11.18999715044154
 20
-5.758330997408696
 30
0.0
 10
11.1937276689616
 20
-5.762061513493941
 30
0.0
 10
11.19372767046345
 20
-5.766663297121188
 30
0.0
 10
11.19372767046345
 20
-5.766663297121188
 30
0.0
 10
11.19372769768642
 20
-5.850078730578135
 30
0.0
 10
11.19372769768642
 20
-5.850078730578135
 30
0.0
 10
11.19372769918828
 20
-5.854680514205331
 30
0.0
 10
11.18999718310308
 20
-5.858411032725497
 30
0.0
 10
11.18539539947589
 20
-5.858411034227325
 30
0.0
 10
11.18539539947589
 20
-5.858411034227325
 30
0.0
 10
11.10198000133573
 20
-5.85841106145032
 30
0.0
 10
11.10198000133573
 20
-5.85841106145032
 30
0.0
 10
11.09737821770858
 20
-5.858411062952149
 30
0.0
 10
11.09364769918842
 20
-5.854680546866902
 30
0.0
 10
11.09364769768662
 20
-5.850078763239707
 30
0.0
 10
11.09364769768662
 20
-5.850078763239707
 30
0.0
 10
11.0936476704636
 20
-5.766663329782759
 30
0.0
 10
11.0936476704636
 20
-5.766663329782759
 30
0.0
 10
11.09364766896179
 20
-5.762061546155513
 30
0.0
 10
11.09737818504699
 20
-5.758331027635348
 30
0.0
 10
11.10197996867413
 20
-5.758331026133519
 30
0.0
  0
SPLINE
  5
17B
330
16C
100
AcDbEntity
  8
Layer 1
 62
    18
420
    65793
370
     9
100
AcDbSpline
210
0.0
220
0.0
230
1.0
 70
     9
 71
     3
 72
    29
 73
    25
 74
     0
 42
0.0000000001
 43
0.0000000001
 40
0.0
 40
0.0
 40
0.0
 40
0.0
 40
1.0
 40
1.0
 40
1.0
 40
2.0
 40
2.0
 40
2.0
 40
3.0
 40
3.0
 40
3.0
 40
4.0
 40
4.0
 40
4.0
 40
5.0
 40
5.0
 40
5.0
 40
6.0
 40
6.0
 40
6.0
 40
7.0
 40
7.0
 40
7.0
 40
8.0
 40
8.0
 40
8.0
 40
8.0
 10
11.30464196867418
 20
-5.758330959993852
 30
0.0
 10
11.30464196867418
 20
-5.758330959993852
 30
0.0
 10
11.38805736681439
 20
-5.758330932770856
 30
0.0
 10
11.38805736681439
 20
-5.758330932770856
 30
0.0
 10
11.39265915044153
 20
-5.758330931269028
 30
0.0
 10
11.39638966896169
 20
-5.762061447354274
 30
0.0
 10
11.3963896704635
 20
-5.76666323098147
 30
0.0
 10
11.3963896704635
 20
-5.76666323098147
 30
0.0
 10
11.39638969768652
 20
-5.850078664438468
 30
0.0
 10
11.39638969768652
 20
-5.850078664438468
 30
0.0
 10
11.39638969918832
 20
-5.854680448065664
 30
0.0
 10
11.39265918310313
 20
-5.858410966585879
 30
0.0
 10
11.38805739947598
 20
-5.858410968087708
 30
0.0
 10
11.38805739947598
 20
-5.858410968087708
 30
0.0
 10
11.30464200133578
 20
-5.858410995310704
 30
0.0
 10
11.30464200133578
 20
-5.858410995310704
 30
0.0
 10
11.30004021770858
 20
-5.858410996812532
 30
0.0
 10
11.29630969918831
 20
-5.854680480727235
 30
0.0
 10
11.29630969768651
 20
-5.850078697100039
 30
0.0
 10
11.29630969768651
 20
-5.850078697100039
 30
0.0
 10
11.29630967046349
 20
-5.766663263643041
 30
0.0
 10
11.29630967046349
 20
-5.766663263643041
 30
0.0
 10
11.29630966896169
 20
-5.762061480015845
 30
0.0
 10
11.30004018504698
 20
-5.758330961495681
 30
0.0
 10
11.30464196867418
 20
-5.758330959993852
 30
0.0
  0
SPLINE
  5
17C
330
16C
100
AcDbEntity
  8
Layer 1
 62
    18
420
    65793
370
     9
100
AcDbSpline
210
0.0
220
0.0
230
1.0
 70
     9
 71
     3
 72
    29
 73
    25
 74
     0
 42
0.0000000001
 43
0.0000000001
 40
0.0
 40
0.0
 40
0.0
 40
0.0
 40
1.0
 40
1.0
 40
1.0
 40
2.0
 40
2.0
 40
2.0
 40
3.0
 40
3.0
 40
3.0
 40
4.0
 40
4.0
 40
4.0
 40
5.0
 40
5.0
 40
5.0
 40
6.0
 40
6.0
 40
6.0
 40
7.0
 40
7.0
 40
7.0
 40
8.0
 40
8.0
 40
8.0
 40
8.0
 10
10.69665602335191
 20
-5.934881381183812
 30
0.0
 10
10.69665602335191
 20
-5.934881381183812
 30
0.0
 10
10.78007142737265
 20
-5.934881353960816
 30
0.0
 10
10.78007142737265
 20
-5.934881353960816
 30
0.0
 10
10.78467320937599
 20
-5.934881352459038
 30
0.0
 10
10.78840372657982
 20
-5.938611867227791
 30
0.0
 10
10.78840372808162
 20
-5.943213649231134
 30
0.0
 10
10.78840372808162
 20
-5.943213649231134
 30
0.0
 10
10.78840375530462
 20
-6.026629053251932
 30
0.0
 10
10.78840375530462
 20
-6.026629053251932
 30
0.0
 10
10.78840375680642
 20
-6.031230835255225
 30
0.0
 10
10.78467324203757
 20
-6.034961352459049
 30
0.0
 10
10.78007146003422
 20
-6.034961353960826
 30
0.0
 10
10.78007146003422
 20
-6.034961353960826
 30
0.0
 10
10.69665605601348
 20
-6.034961381183822
 30
0.0
 10
10.69665605601348
 20
-6.034961381183822
 30
0.0
 10
10.69205427401013
 20
-6.034961382685651
 30
0.0
 10
10.68832375680626
 20
-6.031230867916797
 30
0.0
 10
10.68832375530446
 20
-6.026629085913504
 30
0.0
 10
10.68832375530446
 20
-6.026629085913504
 30
0.0
 10
10.68832372808146
 20
-5.943213681892706
 30
0.0
 10
10.68832372808146
 20
-5.943213681892706
 30
0.0
 10
10.68832372657966
 20
-5.938611899889362
 30
0.0
 10
10.69205424134856
 20
-5.93488138268564
 30
0.0
 10
10.69665602335191
 20
-5.934881381183812
 30
0.0
  0
SPLINE
  5
17D
330
16C
100
AcDbEntity
  8
Layer 1
 62
    18
420
    65793
370
     9
100
AcDbSpline
210
0.0
220
0.0
230
1.0
 70
     9
 71
     3
 72
    29
 73
    25
 74
     0
 42
0.0000000001
 43
0.0000000001
 40
0.0
 40
0.0
 40
0.0
 40
0.0
 40
1.0
 40
1.0
 40
1.0
 40
2.0
 40
2.0
 40
2.0
 40
3.0
 40
3.0
 40
3.0
 40
4.0
 40
4.0
 40
4.0
 40
5.0
 40
5.0
 40
5.0
 40
6.0
 40
6.0
 40
6.0
 40
7.0
 40
7.0
 40
7.0
 40
8.0
 40
8.0
 40
8.0
 40
8.0
 10
10.89931802335185
 20
-5.934881315044145
 30
0.0
 10
10.89931802335185
 20
-5.934881315044145
 30
0.0
 10
10.98273342737259
 20
-5.934881287821199
 30
0.0
 10
10.98273342737259
 20
-5.934881287821199
 30
0.0
 10
10.98733520937594
 20
-5.934881286319371
 30
0.0
 10
10.99106572657976
 20
-5.938611801088174
 30
0.0
 10
10.99106572808157
 20
-5.943213583091467
 30
0.0
 10
10.99106572808157
 20
-5.943213583091467
 30
0.0
 10
10.99106575530456
 20
-6.026628987112315
 30
0.0
 10
10.99106575530456
 20
-6.026628987112315
 30
0.0
 10
10.99106575680641
 20
-6.031230769115558
 30
0.0
 10
10.98733524203751
 20
-6.034961286319381
 30
0.0
 10
10.98273346003417
 20
-6.03496128782121
 30
0.0
 10
10.98273346003417
 20
-6.03496128782121
 30
0.0
 10
10.89931805601342
 20
-6.034961315044205
 30
0.0
 10
10.89931805601342
 20
-6.034961315044205
 30
0.0
 10
10.89471627401008
 20
-6.034961316546033
 30
0.0
 10
10.8909857568063
 20
-6.031230801777129
 30
0.0
 10
10.89098575530445
 20
-6.026629019773836
 30
0.0
 10
10.89098575530445
 20
-6.026629019773836
 30
0.0
 10
10.89098572808145
 20
-5.943213615753038
 30
0.0
 10
10.89098572808145
 20
-5.943213615753038
 30
0.0
 10
10.89098572657965
 20
-5.938611833749695
 30
0.0
 10
10.8947162413485
 20
-5.934881316545973
 30
0.0
 10
10.89931802335185
 20
-5.934881315044145
 30
0.0
  0
SPLINE
  5
17E
330
16C
100
AcDbEntity
  8
Layer 1
 62
    18
420
    65793
370
     9
100
AcDbSpline
210
0.0
220
0.0
230
1.0
 70
     9
 71
     3
 72
    29
 73
    25
 74
     0
 42
0.0000000001
 43
0.0000000001
 40
0.0
 40
0.0
 40
0.0
 40
0.0
 40
1.0
 40
1.0
 40
1.0
 40
2.0
 40
2.0
 40
2.0
 40
3.0
 40
3.0
 40
3.0
 40
4.0
 40
4.0
 40
4.0
 40
5.0
 40
5.0
 40
5.0
 40
6.0
 40
6.0
 40
6.0
 40
7.0
 40
7.0
 40
7.0
 40
8.0
 40
8.0
 40
8.0
 40
8.0
 10
11.10198002629209
 20
-5.934881231246132
 30
0.0
 10
11.10198002629209
 20
-5.934881231246132
 30
0.0
 10
11.1853954244323
 20
-5.934881204023136
 30
0.0
 10
11.1853954244323
 20
-5.934881204023136
 30
0.0
 10
11.18999720805949
 20
-5.934881202521308
 30
0.0
 10
11.1937277265796
 20
-5.938611718606503
 30
0.0
 10
11.19372772808141
 20
-5.94321350223375
 30
0.0
 10
11.19372772808141
 20
-5.94321350223375
 30
0.0
 10
11.19372775530441
 20
-6.026628935690748
 30
0.0
 10
11.19372775530441
 20
-6.026628935690748
 30
0.0
 10
11.19372775680621
 20
-6.031230719317944
 30
0.0
 10
11.18999724072106
 20
-6.034961237838059
 30
0.0
 10
11.18539545709387
 20
-6.034961239339887
 30
0.0
 10
11.18539545709387
 20
-6.034961239339887
 30
0.0
 10
11.10198005895366
 20
-6.034961266562882
 30
0.0
 10
11.10198005895366
 20
-6.034961266562882
 30
0.0
 10
11.09737827532651
 20
-6.034961268064711
 30
0.0
 10
11.09364775680635
 20
-6.031230751979515
 30
0.0
 10
11.09364775530454
 20
-6.02662896835227
 30
0.0
 10
11.09364775530454
 20
-6.02662896835227
 30
0.0
 10
11.09364772808155
 20
-5.943213534895321
 30
0.0
 10
11.09364772808155
 20
-5.943213534895321
 30
0.0
 10
11.09364772657975
 20
-5.938611751268076
 30
0.0
 10
11.09737824266494
 20
-5.934881232747961
 30
0.0
 10
11.10198002629209
 20
-5.934881231246132
 30
0.0
  0
SPLINE
  5
17F
330
16C
100
AcDbEntity
  8
Layer 1
 62
    18
420
    65793
370
     9
100
AcDbSpline
210
0.0
220
0.0
230
1.0
 70
     9
 71
     3
 72
    29
 73
    25
 74
     0
 42
0.0000000001
 43
0.0000000001
 40
0.0
 40
0.0
 40
0.0
 40
0.0
 40
1.0
 40
1.0
 40
1.0
 40
2.0
 40
2.0
 40
2.0
 40
3.0
 40
3.0
 40
3.0
 40
4.0
 40
4.0
 40
4.0
 40
5.0
 40
5.0
 40
5.0
 40
6.0
 40
6.0
 40
6.0
 40
7.0
 40
7.0
 40
7.0
 40
8.0
 40
8.0
 40
8.0
 40
8.0
 10
11.30464202629218
 20
-5.934881165106465
 30
0.0
 10
11.30464202629218
 20
-5.934881165106465
 30
0.0
 10
11.38805742443234
 20
-5.934881137883469
 30
0.0
 10
11.38805742443234
 20
-5.934881137883469
 30
0.0
 10
11.39265920805948
 20
-5.934881136381641
 30
0.0
 10
11.39638972657965
 20
-5.938611652466836
 30
0.0
 10
11.3963897280815
 20
-5.943213436094032
 30
0.0
 10
11.3963897280815
 20
-5.943213436094032
 30
0.0
 10
11.39638975530445
 20
-6.026628869551081
 30
0.0
 10
11.39638975530445
 20
-6.026628869551081
 30
0.0
 10
11.3963897568063
 20
-6.031230653178277
 30
0.0
 10
11.39265924072106
 20
-6.034961171698492
 30
0.0
 10
11.38805745709391
 20
-6.034961173200321
 30
0.0
 10
11.38805745709391
 20
-6.034961173200321
 30
0.0
 10
11.3046420589537
 20
-6.034961200423317
 30
0.0
 10
11.3046420589537
 20
-6.034961200423317
 30
0.0
 10
11.30004027532651
 20
-6.034961201925094
 30
0.0
 10
11.29630975680629
 20
-6.031230685839848
 30
0.0
 10
11.29630975530444
 20
-6.026628902212652
 30
0.0
 10
11.29630975530444
 20
-6.026628902212652
 30
0.0
 10
11.29630972808149
 20
-5.943213468755604
 30
0.0
 10
11.29630972808149
 20
-5.943213468755604
 30
0.0
 10
11.29630972657964
 20
-5.938611685128408
 30
0.0
 10
11.30004024266499
 20
-5.934881166608293
 30
0.0
 10
11.30464202629218
 20
-5.934881165106465
 30
0.0
  0
SPLINE
  5
180
330
16C
100
AcDbEntity
  8
Layer 1
 62
   215
420
  9981598
370
     9
100
AcDbSpline
210
0.0
220
0.0
230
1.0
 70
     9
 71
     3
 72
    53
 73
    49
 74
     0
 42
0.0000000001
 43
0.0000000001
 40
0.0
 40
0.0
 40
0.0
 40
0.0
 40
1.0
 40
1.0
 40
1.0
 40
2.0
 40
2.0
 40
2.0
 40
3.0
 40
3.0
 40
3.0
 40
4.0
 40
4.0
 40
4.0
 40
5.0
 40
5.0
 40
5.0
 40
6.0
 40
6.0
 40
6.0
 40
7.0
 40
7.0
 40
7.0
 40
8.0
 40
8.0
 40
8.0
 40
9.0
 40
9.0
 40
9.0
 40
10.0
 40
10.0
 40
10.0
 40
11.0
 40
11.0
 40
11.0
 40
12.0
 40
12.0
 40
12.0
 40
13.0
 40
13.0
 40
13.0
 40
14.0
 40
14.0
 40
14.0
 40
15.0
 40
15.0
 40
15.0
 40
16.0
 40
16.0
 40
16.0
 40
16.0
 10
10.65829966581777
 20
-5.752428330306429
 30
0.0
 10
10.65829966581777
 20
-5.752428330306429
 30
0.0
 10
10.65829975676494
 20
-6.031104225198658
 30
0.0
 10
10.65829975676494
 20
-6.031104225198658
 30
0.0
 10
10.65829977008707
 20
-6.071925350726965
 30
0.0
 10
10.69139184151986
 20
-6.105017400560275
 30
0.0
 10
10.73221296704812
 20
-6.105017387238098
 30
0.0
 10
10.73221296704812
 20
-6.105017387238098
 30
0.0
 10
10.73221311487461
 20
-6.105017387238047
 30
0.0
 10
10.73221311487461
 20
-6.105017387238047
 30
0.0
 10
10.77303424040307
 20
-6.105017373915921
 30
0.0
 10
10.80612631183569
 20
-6.138109423749179
 30
0.0
 10
10.80612632515787
 20
-6.178930549277487
 30
0.0
 10
10.80612632515787
 20
-6.178930549277487
 30
0.0
 10
10.80612632636927
 20
-6.182642521225917
 30
0.0
 10
10.80612632636927
 20
-6.182642521225917
 30
0.0
 10
10.80612633969144
 20
-6.223463646754225
 30
0.0
 10
10.83921841112422
 20
-6.256555696587484
 30
0.0
 10
10.88003953665262
 20
-6.256555683265307
 30
0.0
 10
10.88003953665262
 20
-6.256555683265307
 30
0.0
 10
11.20467412403139
 20
-6.256555577319381
 30
0.0
 10
11.20467412403139
 20
-6.256555577319381
 30
0.0
 10
11.2454952495598
 20
-6.256555563997253
 30
0.0
 10
11.27858729939306
 20
-6.223463492564455
 30
0.0
 10
11.27858728607086
 20
-6.182642367036148
 30
0.0
 10
11.27858728607086
 20
-6.182642367036148
 30
0.0
 10
11.27858728485946
 20
-6.178930395087718
 30
0.0
 10
11.27858728485946
 20
-6.178930395087718
 30
0.0
 10
11.27858727153734
 20
-6.13810926955941
 30
0.0
 10
11.31167932137062
 20
-6.105017198126662
 30
0.0
 10
11.35250044689893
 20
-6.105017184804536
 30
0.0
 10
11.35250044689893
 20
-6.105017184804536
 30
0.0
 10
11.35250059472542
 20
-6.105017184804485
 30
0.0
 10
11.35250059472542
 20
-6.105017184804485
 30
0.0
 10
11.39332172025373
 20
-6.105017171482308
 30
0.0
 10
11.42641377008698
 20
-6.07192510004951
 30
0.0
 10
11.42641375676486
 20
-6.031103974521202
 30
0.0
 10
11.42641375676486
 20
-6.031103974521202
 30
0.0
 10
11.42641366581769
 20
-5.752428079629023
 30
0.0
 10
11.42641366581769
 20
-5.752428079629023
 30
0.0
 10
11.4264136614701
 20
-5.739106340909984
 30
0.0
 10
11.41561425494733
 20
-5.728306941435978
 30
0.0
 10
11.40229251622824
 20
-5.728306945783566
 30
0.0
 10
11.40229251622824
 20
-5.728306945783566
 30
0.0
 10
10.68242079966325
 20
-5.728307180716961
 30
0.0
 10
10.68242079966325
 20
-5.728307180716961
 30
0.0
 10
10.66909906094416
 20
-5.728307185064598
 30
0.0
 10
10.65829966147018
 20
-5.739106591587389
 30
0.0
 10
10.65829966581777
 20
-5.752428330306429
 30
0.0
  0
LWPOLYLINE
  5
181
330
16C
100
AcDbEntity
  8
Layer 1
 62
    93
420
  7454542
370
     9
100
AcDbPolyline
 90
        1
 70
     0
 43
0.0
 10
11.34626157569571
 20
-5.808301277093556
  0
ENDBLK
  5
16F
330
16C
100
AcDbEntity
  8
0
100
AcDbBlockEnd
  0
BLOCK
  5
185
330
183
100
AcDbEntity
  8
0
100
AcDbBlockBegin
  2
Block_37
 70
     0
 10
0.0
 20
0.0
 30
0.0
  3
Block_37
  1

  0
CIRCLE
  5
187
330
183
100
AcDbEntity
  8
Layer 1
 62
    18
420
    65793
370
     9
100
AcDbCircle
 10
8.600703322437702
 20
-6.24337786620618
 30
0.0
 40
0.0360009557247155
  0
CIRCLE
  5
188
330
183
100
AcDbEntity
  8
Layer 1
 62
    18
420
    65793
370
     9
100
AcDbCircle
 10
8.60070334894989
 20
-6.243377866206174
 30
0.0
 40
0.0215450357914063
  0
CIRCLE
  5
189
330
183
100
AcDbEntity
  8
Layer 1
 62
    18
420
    65793
370
     9
100
AcDbCircle
 10
8.700783399322846
 20
-6.243377898911823
 30
0.0
 40
0.0360009490966592
  0
CIRCLE
  5
18A
330
183
100
AcDbEntity
  8
Layer 1
 62
    18
420
    65793
370
     9
100
AcDbCircle
 10
8.700783399322871
 20
-6.24337789891183
 30
0.0
 40
0.0215450424193994
  0
CIRCLE
  5
18B
330
183
100
AcDbEntity
  8
Layer 1
 62
    18
420
    65793
370
     9
100
AcDbCircle
 10
8.801141416290709
 20
-6.243377931708323
 30
0.0
 40
0.0360009490966623
  0
CIRCLE
  5
18C
330
183
100
AcDbEntity
  8
Layer 1
 62
    18
420
    65793
370
     9
100
AcDbCircle
 10
8.801141416290697
 20
-6.243377931708323
 30
0.0
 40
0.0215450424194436
  0
CIRCLE
  5
18D
330
183
100
AcDbEntity
  8
Layer 1
 62
    18
420
    65793
370
     9
100
AcDbCircle
 10
8.90108234417754
 20
-6.243377964368505
 30
0.0
 40
0.0360009490967066
  0
CIRCLE
  5
18E
330
183
100
AcDbEntity
  8
Layer 1
 62
    18
420
    65793
370
     9
100
AcDbCircle
 10
8.901082344177552
 20
-6.243377964368505
 30
0.0
 40
0.0215450424194752
  0
SPLINE
  5
18F
330
183
100
AcDbEntity
  8
Layer 1
 62
    18
420
    65793
370
     9
100
AcDbSpline
210
0.0
220
0.0
230
1.0
 70
     9
 71
     3
 72
    29
 73
    25
 74
     0
 42
0.0000000001
 43
0.0000000001
 40
0.0
 40
0.0
 40
0.0
 40
0.0
 40
1.0
 40
1.0
 40
1.0
 40
2.0
 40
2.0
 40
2.0
 40
3.0
 40
3.0
 40
3.0
 40
4.0
 40
4.0
 40
4.0
 40
5.0
 40
5.0
 40
5.0
 40
6.0
 40
6.0
 40
6.0
 40
7.0
 40
7.0
 40
7.0
 40
8.0
 40
8.0
 40
8.0
 40
8.0
 10
8.40519224611272
 20
-5.831194184441023
 30
0.0
 10
8.40519224611272
 20
-5.831194184441023
 30
0.0
 10
8.488607650133467
 20
-5.831194211700752
 30
0.0
 10
8.488607650133467
 20
-5.831194211700752
 30
0.0
 10
8.493209432136811
 20
-5.831194213204576
 30
0.0
 10
8.496939946904097
 20
-5.834924730409966
 30
0.0
 10
8.496939945400248
 20
-5.839526512413284
 30
0.0
 10
8.496939945400248
 20
-5.839526512413284
 30
0.0
 10
8.496939918140519
 20
-5.922941916434107
 30
0.0
 10
8.496939918140519
 20
-5.922941916434107
 30
0.0
 10
8.496939916636669
 20
-5.927543698437426
 30
0.0
 10
8.493209399431179
 20
-5.931274213204586
 30
0.0
 10
8.488607617427835
 20
-5.931274211700761
 30
0.0
 10
8.488607617427835
 20
-5.931274211700761
 30
0.0
 10
8.405192213407088
 20
-5.931274184441033
 30
0.0
 10
8.405192213407088
 20
-5.931274184441033
 30
0.0
 10
8.400590431403745
 20
-5.931274182937209
 30
0.0
 10
8.396859916636508
 20
-5.927543665731794
 30
0.0
 10
8.396859918140357
 20
-5.922941883728475
 30
0.0
 10
8.396859918140357
 20
-5.922941883728475
 30
0.0
 10
8.396859945400086
 20
-5.839526479707652
 30
0.0
 10
8.396859945400086
 20
-5.839526479707652
 30
0.0
 10
8.396859946903935
 20
-5.834924697704334
 30
0.0
 10
8.400590464109376
 20
-5.831194182937198
 30
0.0
 10
8.40519224611272
 20
-5.831194184441023
 30
0.0
  0
SPLINE
  5
190
330
183
100
AcDbEntity
  8
Layer 1
 62
    18
420
    65793
370
     9
100
AcDbSpline
210
0.0
220
0.0
230
1.0
 70
     9
 71
     3
 72
    29
 73
    25
 74
     0
 42
0.0000000001
 43
0.0000000001
 40
0.0
 40
0.0
 40
0.0
 40
0.0
 40
1.0
 40
1.0
 40
1.0
 40
2.0
 40
2.0
 40
2.0
 40
3.0
 40
3.0
 40
3.0
 40
4.0
 40
4.0
 40
4.0
 40
5.0
 40
5.0
 40
5.0
 40
6.0
 40
6.0
 40
6.0
 40
7.0
 40
7.0
 40
7.0
 40
8.0
 40
8.0
 40
8.0
 40
8.0
 10
8.607854246112713
 20
-5.831194250669947
 30
0.0
 10
8.607854246112713
 20
-5.831194250669947
 30
0.0
 10
8.691269650133461
 20
-5.831194277929676
 30
0.0
 10
8.691269650133461
 20
-5.831194277929676
 30
0.0
 10
8.695871432136804
 20
-5.8311942794335
 30
0.0
 10
8.699601946904042
 20
-5.834924796638865
 30
0.0
 10
8.699601945400193
 20
-5.839526578642208
 30
0.0
 10
8.699601945400193
 20
-5.839526578642208
 30
0.0
 10
8.699601918140462
 20
-5.922941982663005
 30
0.0
 10
8.699601918140462
 20
-5.922941982663005
 30
0.0
 10
8.699601916636613
 20
-5.927543764666349
 30
0.0
 10
8.695871399431172
 20
-5.93127427943351
 30
0.0
 10
8.691269617427829
 20
-5.93127427792966
 30
0.0
 10
8.691269617427829
 20
-5.93127427792966
 30
0.0
 10
8.607854213407083
 20
-5.931274250669932
 30
0.0
 10
8.607854213407083
 20
-5.931274250669932
 30
0.0
 10
8.603252431403738
 20
-5.931274249166108
 30
0.0
 10
8.599521916636502
 20
-5.927543731960692
 30
0.0
 10
8.599521918140352
 20
-5.922941949957374
 30
0.0
 10
8.599521918140352
 20
-5.922941949957374
 30
0.0
 10
8.599521945400081
 20
-5.839526545936577
 30
0.0
 10
8.599521945400081
 20
-5.839526545936577
 30
0.0
 10
8.59952194690393
 20
-5.834924763933233
 30
0.0
 10
8.60325246410937
 20
-5.831194249166097
 30
0.0
 10
8.607854246112713
 20
-5.831194250669947
 30
0.0
  0
SPLINE
  5
191
330
183
100
AcDbEntity
  8
Layer 1
 62
    18
420
    65793
370
     9
100
AcDbSpline
210
0.0
220
0.0
230
1.0
 70
     9
 71
     3
 72
    29
 73
    25
 74
     0
 42
0.0000000001
 43
0.0000000001
 40
0.0
 40
0.0
 40
0.0
 40
0.0
 40
1.0
 40
1.0
 40
1.0
 40
2.0
 40
2.0
 40
2.0
 40
3.0
 40
3.0
 40
3.0
 40
4.0
 40
4.0
 40
4.0
 40
5.0
 40
5.0
 40
5.0
 40
6.0
 40
6.0
 40
6.0
 40
7.0
 40
7.0
 40
7.0
 40
8.0
 40
8.0
 40
8.0
 40
8.0
 10
8.810516249052954
 20
-5.831194299240425
 30
0.0
 10
8.810516249052954
 20
-5.831194299240425
 30
0.0
 10
8.893931647193159
 20
-5.831194326500129
 30
0.0
 10
8.893931647193159
 20
-5.831194326500129
 30
0.0
 10
8.898533430820355
 20
-5.831194328003978
 30
0.0
 10
8.902263946903833
 20
-5.834924846525811
 30
0.0
 10
8.902263945400035
 20
-5.839526630153057
 30
0.0
 10
8.902263945400035
 20
-5.839526630153057
 30
0.0
 10
8.902263918140254
 20
-5.922942063610005
 30
0.0
 10
8.902263918140254
 20
-5.922942063610005
 30
0.0
 10
8.902263916636456
 20
-5.927543847237201
 30
0.0
 10
8.898533398114674
 20
-5.931274363320779
 30
0.0
 10
8.893931614487478
 20
-5.93127436181693
 30
0.0
 10
8.893931614487478
 20
-5.93127436181693
 30
0.0
 10
8.810516216347322
 20
-5.931274334557201
 30
0.0
 10
8.810516216347322
 20
-5.931274334557201
 30
0.0
 10
8.805914432720175
 20
-5.931274333053377
 30
0.0
 10
8.802183916636597
 20
-5.927543814531569
 30
0.0
 10
8.802183918140446
 20
-5.922942030904374
 30
0.0
 10
8.802183918140446
 20
-5.922942030904374
 30
0.0
 10
8.802183945400177
 20
-5.839526597447425
 30
0.0
 10
8.802183945400177
 20
-5.839526597447425
 30
0.0
 10
8.802183946904026
 20
-5.83492481382018
 30
0.0
 10
8.805914465425807
 20
-5.831194297736575
 30
0.0
 10
8.810516249052954
 20
-5.831194299240425
 30
0.0
  0
SPLINE
  5
192
330
183
100
AcDbEntity
  8
Layer 1
 62
    18
420
    65793
370
     9
100
AcDbSpline
210
0.0
220
0.0
230
1.0
 70
     9
 71
     3
 72
    29
 73
    25
 74
     0
 42
0.0000000001
 43
0.0000000001
 40
0.0
 40
0.0
 40
0.0
 40
0.0
 40
1.0
 40
1.0
 40
1.0
 40
2.0
 40
2.0
 40
2.0
 40
3.0
 40
3.0
 40
3.0
 40
4.0
 40
4.0
 40
4.0
 40
5.0
 40
5.0
 40
5.0
 40
6.0
 40
6.0
 40
6.0
 40
7.0
 40
7.0
 40
7.0
 40
8.0
 40
8.0
 40
8.0
 40
8.0
 10
9.013178249052998
 20
-5.831194365469324
 30
0.0
 10
9.013178249052998
 20
-5.831194365469324
 30
0.0
 10
9.096593647193204
 20
-5.831194392729053
 30
0.0
 10
9.096593647193204
 20
-5.831194392729053
 30
0.0
 10
9.10119543082035
 20
-5.831194394232877
 30
0.0
 10
9.104925946903929
 20
-5.83492491275471
 30
0.0
 10
9.104925945400079
 20
-5.839526696381906
 30
0.0
 10
9.104925945400079
 20
-5.839526696381906
 30
0.0
 10
9.104925918140351
 20
-5.922942129838904
 30
0.0
 10
9.104925918140351
 20
-5.922942129838904
 30
0.0
 10
9.104925916636501
 20
-5.9275439134661
 30
0.0
 10
9.101195398114718
 20
-5.931274429549729
 30
0.0
 10
9.096593614487574
 20
-5.931274428045904
 30
0.0
 10
9.096593614487574
 20
-5.931274428045904
 30
0.0
 10
9.013178216347366
 20
-5.931274400786175
 30
0.0
 10
9.013178216347366
 20
-5.931274400786175
 30
0.0
 10
9.00857643272017
 20
-5.931274399282352
 30
0.0
 10
9.00484591663649
 20
-5.927543880760468
 30
0.0
 10
9.00484591814034
 20
-5.922942097133272
 30
0.0
 10
9.00484591814034
 20
-5.922942097133272
 30
0.0
 10
9.004845945400068
 20
-5.839526663676275
 30
0.0
 10
9.004845945400068
 20
-5.839526663676275
 30
0.0
 10
9.004845946903918
 20
-5.834924880049078
 30
0.0
 10
9.008576465425802
 20
-5.8311943639655
 30
0.0
 10
9.013178249052998
 20
-5.831194365469324
 30
0.0
  0
SPLINE
  5
193
330
183
100
AcDbEntity
  8
Layer 1
 62
    18
420
    65793
370
     9
100
AcDbSpline
210
0.0
220
0.0
230
1.0
 70
     9
 71
     3
 72
    29
 73
    25
 74
     0
 42
0.0000000001
 43
0.0000000001
 40
0.0
 40
0.0
 40
0.0
 40
0.0
 40
1.0
 40
1.0
 40
1.0
 40
2.0
 40
2.0
 40
2.0
 40
3.0
 40
3.0
 40
3.0
 40
4.0
 40
4.0
 40
4.0
 40
5.0
 40
5.0
 40
5.0
 40
6.0
 40
6.0
 40
6.0
 40
7.0
 40
7.0
 40
7.0
 40
8.0
 40
8.0
 40
8.0
 40
8.0
 10
8.405192188417053
 20
-6.00774438955361
 30
0.0
 10
8.405192188417053
 20
-6.00774438955361
 30
0.0
 10
8.488607592437801
 20
-6.007744416813339
 30
0.0
 10
8.488607592437801
 20
-6.007744416813339
 30
0.0
 10
8.493209374441144
 20
-6.007744418317188
 30
0.0
 10
8.49693988920838
 20
-6.011474935522528
 30
0.0
 10
8.496939887704531
 20
-6.016076717525871
 30
0.0
 10
8.496939887704531
 20
-6.016076717525871
 30
0.0
 10
8.496939860444802
 20
-6.099492121546669
 30
0.0
 10
8.496939860444802
 20
-6.099492121546669
 30
0.0
 10
8.496939858940953
 20
-6.104093903549962
 30
0.0
 10
8.493209341735513
 20
-6.107824418317199
 30
0.0
 10
8.488607559732169
 20
-6.107824416813349
 30
0.0
 10
8.488607559732169
 20
-6.107824416813349
 30
0.0
 10
8.405192155711421
 20
-6.107824389553621
 30
0.0
 10
8.405192155711421
 20
-6.107824389553621
 30
0.0
 10
8.400590373708078
 20
-6.107824388049796
 30
0.0
 10
8.396859858940791
 20
-6.104093870844331
 30
0.0
 10
8.39685986044464
 20
-6.099492088841038
 30
0.0
 10
8.39685986044464
 20
-6.099492088841038
 30
0.0
 10
8.396859887704369
 20
-6.01607668482024
 30
0.0
 10
8.396859887704369
 20
-6.01607668482024
 30
0.0
 10
8.396859889208219
 20
-6.011474902816896
 30
0.0
 10
8.40059040641371
 20
-6.00774438804976
 30
0.0
 10
8.405192188417053
 20
-6.00774438955361
 30
0.0
  0
SPLINE
  5
194
330
183
100
AcDbEntity
  8
Layer 1
 62
    18
420
    65793
370
     9
100
AcDbSpline
210
0.0
220
0.0
230
1.0
 70
     9
 71
     3
 72
    29
 73
    25
 74
     0
 42
0.0000000001
 43
0.0000000001
 40
0.0
 40
0.0
 40
0.0
 40
0.0
 40
1.0
 40
1.0
 40
1.0
 40
2.0
 40
2.0
 40
2.0
 40
3.0
 40
3.0
 40
3.0
 40
4.0
 40
4.0
 40
4.0
 40
5.0
 40
5.0
 40
5.0
 40
6.0
 40
6.0
 40
6.0
 40
7.0
 40
7.0
 40
7.0
 40
8.0
 40
8.0
 40
8.0
 40
8.0
 10
8.607854188416997
 20
-6.007744455782509
 30
0.0
 10
8.607854188416997
 20
-6.007744455782509
 30
0.0
 10
8.691269592437745
 20
-6.007744483042238
 30
0.0
 10
8.691269592437745
 20
-6.007744483042238
 30
0.0
 10
8.695871374441088
 20
-6.007744484546088
 30
0.0
 10
8.699601889208325
 20
-6.011475001751452
 30
0.0
 10
8.699601887704476
 20
-6.01607678375477
 30
0.0
 10
8.699601887704476
 20
-6.01607678375477
 30
0.0
 10
8.699601860444747
 20
-6.099492187775593
 30
0.0
 10
8.699601860444747
 20
-6.099492187775593
 30
0.0
 10
8.699601858940948
 20
-6.104093969778861
 30
0.0
 10
8.695871341735458
 20
-6.107824484546098
 30
0.0
 10
8.691269559732113
 20
-6.107824483042273
 30
0.0
 10
8.691269559732113
 20
-6.107824483042273
 30
0.0
 10
8.607854155711367
 20
-6.107824455782544
 30
0.0
 10
8.607854155711367
 20
-6.107824455782544
 30
0.0
 10
8.603252373708022
 20
-6.107824454278721
 30
0.0
 10
8.599521858940835
 20
-6.10409393707323
 30
0.0
 10
8.599521860444635
 20
-6.099492155069961
 30
0.0
 10
8.599521860444635
 20
-6.099492155069961
 30
0.0
 10
8.599521887704364
 20
-6.016076751049139
 30
0.0
 10
8.599521887704364
 20
-6.016076751049139
 30
0.0
 10
8.599521889208213
 20
-6.011474969045821
 30
0.0
 10
8.603252406413654
 20
-6.007744454278659
 30
0.0
 10
8.607854188416997
 20
-6.007744455782509
 30
0.0
  0
SPLINE
  5
195
330
183
100
AcDbEntity
  8
Layer 1
 62
    18
420
    65793
370
     9
100
AcDbSpline
210
0.0
220
0.0
230
1.0
 70
     9
 71
     3
 72
    29
 73
    25
 74
     0
 42
0.0000000001
 43
0.0000000001
 40
0.0
 40
0.0
 40
0.0
 40
0.0
 40
1.0
 40
1.0
 40
1.0
 40
2.0
 40
2.0
 40
2.0
 40
3.0
 40
3.0
 40
3.0
 40
4.0
 40
4.0
 40
4.0
 40
5.0
 40
5.0
 40
5.0
 40
6.0
 40
6.0
 40
6.0
 40
7.0
 40
7.0
 40
7.0
 40
8.0
 40
8.0
 40
8.0
 40
8.0
 10
8.810516191357237
 20
-6.007744504353013
 30
0.0
 10
8.810516191357237
 20
-6.007744504353013
 30
0.0
 10
8.893931589497443
 20
-6.007744531612742
 30
0.0
 10
8.893931589497443
 20
-6.007744531612742
 30
0.0
 10
8.898533373124639
 20
-6.007744533116591
 30
0.0
 10
8.902263889208168
 20
-6.011475051638373
 30
0.0
 10
8.902263887704318
 20
-6.01607683526562
 30
0.0
 10
8.902263887704318
 20
-6.01607683526562
 30
0.0
 10
8.902263860444589
 20
-6.099492268722593
 30
0.0
 10
8.902263860444589
 20
-6.099492268722593
 30
0.0
 10
8.90226385894074
 20
-6.104094052349788
 30
0.0
 10
8.898533340419009
 20
-6.107824568433342
 30
0.0
 10
8.893931556791812
 20
-6.107824566929517
 30
0.0
 10
8.893931556791812
 20
-6.107824566929517
 30
0.0
 10
8.810516158651605
 20
-6.107824539669788
 30
0.0
 10
8.810516158651605
 20
-6.107824539669788
 30
0.0
 10
8.80591437502446
 20
-6.107824538165965
 30
0.0
 10
8.802183858940882
 20
-6.104094019644157
 30
0.0
 10
8.802183860444731
 20
-6.099492236016961
 30
0.0
 10
8.802183860444731
 20
-6.099492236016961
 30
0.0
 10
8.80218388770446
 20
-6.016076802559988
 30
0.0
 10
8.80218388770446
 20
-6.016076802559988
 30
0.0
 10
8.802183889208309
 20
-6.011475018932742
 30
0.0
 10
8.805914407730091
 20
-6.007744502849188
 30
0.0
 10
8.810516191357237
 20
-6.007744504353013
 30
0.0
  0
SPLINE
  5
196
330
183
100
AcDbEntity
  8
Layer 1
 62
    18
420
    65793
370
     9
100
AcDbSpline
210
0.0
220
0.0
230
1.0
 70
     9
 71
     3
 72
    29
 73
    25
 74
     0
 42
0.0000000001
 43
0.0000000001
 40
0.0
 40
0.0
 40
0.0
 40
0.0
 40
1.0
 40
1.0
 40
1.0
 40
2.0
 40
2.0
 40
2.0
 40
3.0
 40
3.0
 40
3.0
 40
4.0
 40
4.0
 40
4.0
 40
5.0
 40
5.0
 40
5.0
 40
6.0
 40
6.0
 40
6.0
 40
7.0
 40
7.0
 40
7.0
 40
8.0
 40
8.0
 40
8.0
 40
8.0
 10
9.013178191357331
 20
-6.007744570581937
 30
0.0
 10
9.013178191357331
 20
-6.007744570581937
 30
0.0
 10
9.096593589497489
 20
-6.00774459784164
 30
0.0
 10
9.096593589497489
 20
-6.00774459784164
 30
0.0
 10
9.101195373124634
 20
-6.00774459934549
 30
0.0
 10
9.104925889208212
 20
-6.011475117867272
 30
0.0
 10
9.104925887704412
 20
-6.016076901494468
 30
0.0
 10
9.104925887704412
 20
-6.016076901494468
 30
0.0
 10
9.104925860444634
 20
-6.099492334951516
 30
0.0
 10
9.104925860444634
 20
-6.099492334951516
 30
0.0
 10
9.104925858940834
 20
-6.104094118578712
 30
0.0
 10
9.101195340419002
 20
-6.107824634662316
 30
0.0
 10
9.096593556791857
 20
-6.107824633158492
 30
0.0
 10
9.096593556791857
 20
-6.107824633158492
 30
0.0
 10
9.013178158651649
 20
-6.107824605898763
 30
0.0
 10
9.013178158651649
 20
-6.107824605898763
 30
0.0
 10
9.008576375024453
 20
-6.107824604394914
 30
0.0
 10
9.004845858940825
 20
-6.10409408587308
 30
0.0
 10
9.004845860444623
 20
-6.099492302245885
 30
0.0
 10
9.004845860444623
 20
-6.099492302245885
 30
0.0
 10
9.004845887704403
 20
-6.016076868788837
 30
0.0
 10
9.004845887704403
 20
-6.016076868788837
 30
0.0
 10
9.004845889208201
 20
-6.011475085161641
 30
0.0
 10
9.008576407730135
 20
-6.007744569078087
 30
0.0
 10
9.013178191357331
 20
-6.007744570581937
 30
0.0
  0
SPLINE
  5
197
330
183
100
AcDbEntity
  8
Layer 1
 62
   215
420
  9981598
370
     9
100
AcDbSpline
210
0.0
220
0.0
230
1.0
 70
     9
 71
     3
 72
    53
 73
    49
 74
     0
 42
0.0000000001
 43
0.0000000001
 40
0.0
 40
0.0
 40
0.0
 40
0.0
 40
1.0
 40
1.0
 40
1.0
 40
2.0
 40
2.0
 40
2.0
 40
3.0
 40
3.0
 40
3.0
 40
4.0
 40
4.0
 40
4.0
 40
5.0
 40
5.0
 40
5.0
 40
6.0
 40
6.0
 40
6.0
 40
7.0
 40
7.0
 40
7.0
 40
8.0
 40
8.0
 40
8.0
 40
9.0
 40
9.0
 40
9.0
 40
10.0
 40
10.0
 40
10.0
 40
11.0
 40
11.0
 40
11.0
 40
12.0
 40
12.0
 40
12.0
 40
13.0
 40
13.0
 40
13.0
 40
14.0
 40
14.0
 40
14.0
 40
15.0
 40
15.0
 40
15.0
 40
16.0
 40
16.0
 40
16.0
 40
16.0
 10
8.366835950052012
 20
-5.825291313623842
 30
0.0
 10
8.366835950052012
 20
-5.825291313623842
 30
0.0
 10
8.366835858982186
 20
-6.103967208516047
 30
0.0
 10
8.366835858982186
 20
-6.103967208516047
 30
0.0
 10
8.36683584564202
 20
-6.144788334044354
 30
0.0
 10
8.399927895460779
 20
-6.177880405491729
 30
0.0
 10
8.440749020989034
 20
-6.177880418831843
 30
0.0
 10
8.440749020989034
 20
-6.177880418831843
 30
0.0
 10
8.440749168815525
 20
-6.177880418831894
 30
0.0
 10
8.440749168815525
 20
-6.177880418831894
 30
0.0
 10
8.481570294343985
 20
-6.177880432172059
 30
0.0
 10
8.514662344162539
 20
-6.210972503619359
 30
0.0
 10
8.514662330822424
 20
-6.251793629147666
 30
0.0
 10
8.514662330822424
 20
-6.251793629147666
 30
0.0
 10
8.514662329609361
 20
-6.255505601096122
 30
0.0
 10
8.514662329609361
 20
-6.255505601096122
 30
0.0
 10
8.514662316269246
 20
-6.296326726624404
 30
0.0
 10
8.547754366087954
 20
-6.329418798071754
 30
0.0
 10
8.588575491616362
 20
-6.329418811411869
 30
0.0
 10
8.588575491616362
 20
-6.329418811411869
 30
0.0
 10
8.913210078995133
 20
-6.329418917500788
 30
0.0
 10
8.913210078995133
 20
-6.329418917500788
 30
0.0
 10
8.954031204523541
 20
-6.329418930840953
 30
0.0
 10
8.987123275970841
 20
-6.296326881022245
 30
0.0
 10
8.987123289310956
 20
-6.255505755493938
 30
0.0
 10
8.987123289310956
 20
-6.255505755493938
 30
0.0
 10
8.987123290524019
 20
-6.251793783545508
 30
0.0
 10
8.987123290524019
 20
-6.251793783545508
 30
0.0
 10
8.987123303864184
 20
-6.2109726580172
 30
0.0
 10
9.020215375311535
 20
-6.177880608198493
 30
0.0
 10
9.061036500839842
 20
-6.177880621538658
 30
0.0
 10
9.061036500839842
 20
-6.177880621538658
 30
0.0
 10
9.061036648666332
 20
-6.177880621538684
 30
0.0
 10
9.061036648666332
 20
-6.177880621538684
 30
0.0
 10
9.101857774194639
 20
-6.177880634878824
 30
0.0
 10
9.134949845641939
 20
-6.144788585060092
 30
0.0
 10
9.134949858982103
 20
-6.103967459531784
 30
0.0
 10
9.134949858982103
 20
-6.103967459531784
 30
0.0
 10
9.134949950051931
 20
-5.825291564639579
 30
0.0
 10
9.134949950051931
 20
-5.825291564639579
 30
0.0
 10
9.13494995440543
 20
-5.81196982592054
 30
0.0
 10
9.124150554936274
 20
-5.801170419392948
 30
0.0
 10
9.110828816217184
 20
-5.80117041503945
 30
0.0
 10
9.110828816217184
 20
-5.80117041503945
 30
0.0
 10
8.390957099652192
 20
-5.801170179789045
 30
0.0
 10
8.390957099652192
 20
-5.801170179789045
 30
0.0
 10
8.377635360933101
 20
-5.801170175435597
 30
0.0
 10
8.366835954405511
 20
-5.811969574904802
 30
0.0
 10
8.366835950052012
 20
-5.825291313623842
 30
0.0
  0
LWPOLYLINE
  5
198
330
183
100
AcDbEntity
  8
Layer 1
 62
    93
420
  7454542
370
     9
100
AcDbPolyline
 90
        1
 70
     0
 43
0.0
 10
9.054797823436425
 20
-5.881164709752838
  0
ENDBLK
  5
186
330
183
100
AcDbEntity
  8
0
100
AcDbBlockEnd
  0
ENDSEC
  0
SECTION
  2
ENTITIES
  0
INSERT
  5
7A
330
70
100
AcDbEntity
  8
Layer 1
100
AcDbBlockReference
  2
Block_0
 10
0.0
 20
0.0
 30
0.0
  0
INSERT
  5
AF
330
70
100
AcDbEntity
  8
Layer 1
100
AcDbBlockReference
  2
Block_6
 10
0.0
 20
0.0
 30
0.0
  0
SPLINE
  5
C4
330
70
100
AcDbEntity
  8
Layer 1
 62
   250
420
  2301728
370
    20
100
AcDbSpline
210
0.0
220
0.0
230
1.0
 70
     9
 71
     3
 72
   281
 73
   277
 74
     0
 42
0.0000000001
 43
0.0000000001
 40
0.0
 40
0.0
 40
0.0
 40
0.0
 40
1.0
 40
1.0
 40
1.0
 40
2.0
 40
2.0
 40
2.0
 40
3.0
 40
3.0
 40
3.0
 40
4.0
 40
4.0
 40
4.0
 40
5.0
 40
5.0
 40
5.0
 40
6.0
 40
6.0
 40
6.0
 40
7.0
 40
7.0
 40
7.0
 40
8.0
 40
8.0
 40
8.0
 40
9.0
 40
9.0
 40
9.0
 40
10.0
 40
10.0
 40
10.0
 40
11.0
 40
11.0
 40
11.0
 40
12.0
 40
12.0
 40
12.0
 40
13.0
 40
13.0
 40
13.0
 40
14.0
 40
14.0
 40
14.0
 40
15.0
 40
15.0
 40
15.0
 40
16.0
 40
16.0
 40
16.0
 40
17.0
 40
17.0
 40
17.0
 40
18.0
 40
18.0
 40
18.0
 40
19.0
 40
19.0
 40
19.0
 40
20.0
 40
20.0
 40
20.0
 40
21.0
 40
21.0
 40
21.0
 40
22.0
 40
22.0
 40
22.0
 40
23.0
 40
23.0
 40
23.0
 40
24.0
 40
24.0
 40
24.0
 40
25.0
 40
25.0
 40
25.0
 40
26.0
 40
26.0
 40
26.0
 40
27.0
 40
27.0
 40
27.0
 40
28.0
 40
28.0
 40
28.0
 40
29.0
 40
29.0
 40
29.0
 40
30.0
 40
30.0
 40
30.0
 40
31.0
 40
31.0
 40
31.0
 40
32.0
 40
32.0
 40
32.0
 40
33.0
 40
33.0
 40
33.0
 40
34.0
 40
34.0
 40
34.0
 40
35.0
 40
35.0
 40
35.0
 40
36.0
 40
36.0
 40
36.0
 40
37.0
 40
37.0
 40
37.0
 40
38.0
 40
38.0
 40
38.0
 40
39.0
 40
39.0
 40
39.0
 40
40.0
 40
40.0
 40
40.0
 40
41.0
 40
41.0
 40
41.0
 40
42.0
 40
42.0
 40
42.0
 40
43.0
 40
43.0
 40
43.0
 40
44.0
 40
44.0
 40
44.0
 40
45.0
 40
45.0
 40
45.0
 40
46.0
 40
46.0
 40
46.0
 40
47.0
 40
47.0
 40
47.0
 40
48.0
 40
48.0
 40
48.0
 40
49.0
 40
49.0
 40
49.0
 40
50.0
 40
50.0
 40
50.0
 40
51.0
 40
51.0
 40
51.0
 40
52.0
 40
52.0
 40
52.0
 40
53.0
 40
53.0
 40
53.0
 40
54.0
 40
54.0
 40
54.0
 40
55.0
 40
55.0
 40
55.0
 40
56.0
 40
56.0
 40
56.0
 40
57.0
 40
57.0
 40
57.0
 40
58.0
 40
58.0
 40
58.0
 40
59.0
 40
59.0
 40
59.0
 40
60.0
 40
60.0
 40
60.0
 40
61.0
 40
61.0
 40
61.0
 40
62.0
 40
62.0
 40
62.0
 40
63.0
 40
63.0
 40
63.0
 40
64.0
 40
64.0
 40
64.0
 40
65.0
 40
65.0
 40
65.0
 40
66.0
 40
66.0
 40
66.0
 40
67.0
 40
67.0
 40
67.0
 40
68.0
 40
68.0
 40
68.0
 40
69.0
 40
69.0
 40
69.0
 40
70.0
 40
70.0
 40
70.0
 40
71.0
 40
71.0
 40
71.0
 40
72.0
 40
72.0
 40
72.0
 40
73.0
 40
73.0
 40
73.0
 40
74.0
 40
74.0
 40
74.0
 40
75.0
 40
75.0
 40
75.0
 40
76.0
 40
76.0
 40
76.0
 40
77.0
 40
77.0
 40
77.0
 40
78.0
 40
78.0
 40
78.0
 40
79.0
 40
79.0
 40
79.0
 40
80.0
 40
80.0
 40
80.0
 40
81.0
 40
81.0
 40
81.0
 40
82.0
 40
82.0
 40
82.0
 40
83.0
 40
83.0
 40
83.0
 40
84.0
 40
84.0
 40
84.0
 40
85.0
 40
85.0
 40
85.0
 40
86.0
 40
86.0
 40
86.0
 40
87.0
 40
87.0
 40
87.0
 40
88.0
 40
88.0
 40
88.0
 40
89.0
 40
89.0
 40
89.0
 40
90.0
 40
90.0
 40
90.0
 40
91.0
 40
91.0
 40
91.0
 40
92.0
 40
92.0
 40
92.0
 40
92.0
 10
9.82155488940806
 20
-0.3380138394027199
 30
0.0
 10
9.82155488940806
 20
-0.3380138394027199
 30
0.0
 10
9.393722179989152
 20
-0.3380138394027199
 30
0.0
 10
9.393722179989152
 20
-0.3380138394027199
 30
0.0
 10
9.362940116187372
 20
-0.3529911885766523
 30
0.0
 10
9.341669364234247
 20
-0.3844819383598406
 30
0.0
 10
9.341669364234247
 20
-0.4210148702172774
 30
0.0
 10
9.341669364234247
 20
-0.4210148702172774
 30
0.0
 10
9.345270438452997
 20
-4.73813997872503
 30
0.0
 10
9.345270438452997
 20
-4.73813997872503
 30
0.0
 10
9.345270438452997
 20
-4.73813997872503
 30
0.0
 10
9.063325315840655
 20
-4.73813997872503
 30
0.0
 10
9.063325315840655
 20
-4.73813997872503
 30
0.0
 10
9.063325315840655
 20
-4.73813997872503
 30
0.0
 10
9.050263792403155
 20
-0.4210148702172774
 30
0.0
 10
9.050263792403155
 20
-0.4210148702172774
 30
0.0
 10
9.050263792403155
 20
-0.3844819383598406
 30
0.0
 10
9.02899304045003
 20
-0.3529911885766523
 30
0.0
 10
8.998210976647341
 20
-0.3380138394027199
 30
0.0
 10
8.998210976647341
 20
-0.3380138394027199
 30
0.0
 10
8.570378267229342
 20
-0.3380138394027199
 30
0.0
 10
8.570378267229342
 20
-0.3380138394027199
 30
0.0
 10
8.539596203426652
 20
-0.3529911885766523
 30
0.0
 10
8.518325451474437
 20
-0.3844819383598406
 30
0.0
 10
8.518325451474437
 20
-0.4210148702172774
 30
0.0
 10
8.518325451474437
 20
-0.4210148702172774
 30
0.0
 10
8.521929916534999
 20
-4.73813997872503
 30
0.0
 10
8.521929916534999
 20
-4.73813997872503
 30
0.0
 10
8.521929916534999
 20
-4.73813997872503
 30
0.0
 10
8.239985641632655
 20
-4.73813997872503
 30
0.0
 10
8.239985641632655
 20
-4.73813997872503
 30
0.0
 10
8.239985641632655
 20
-4.73813997872503
 30
0.0
 10
8.239337990807497
 20
-0.4210148702172774
 30
0.0
 10
8.239337990807497
 20
-0.4210148702172774
 30
0.0
 10
8.239337990807497
 20
-0.3844819383598406
 30
0.0
 10
8.218067238854372
 20
-0.3529911885766523
 30
0.0
 10
8.187285175052592
 20
-0.3380138394027199
 30
0.0
 10
8.187285175052592
 20
-0.3380138394027199
 30
0.0
 10
7.759449074791872
 20
-0.3380138394027199
 30
0.0
 10
7.759449074791872
 20
-0.3380138394027199
 30
0.0
 10
7.728667010990092
 20
-0.3529911885766523
 30
0.0
 10
7.707396259036967
 20
-0.3844819383598406
 30
0.0
 10
7.707396259036967
 20
-0.4210148702172774
 30
0.0
 10
7.707396259036967
 20
-0.4210148702172774
 30
0.0
 10
7.711000724097528
 20
-4.73813997872503
 30
0.0
 10
7.711000724097528
 20
-4.73813997872503
 30
0.0
 10
7.711000724097528
 20
-4.73813997872503
 30
0.0
 10
7.429058992326998
 20
-4.73813997872503
 30
0.0
 10
7.429058992326998
 20
-4.73813997872503
 30
0.0
 10
7.429058992326998
 20
-4.73813997872503
 30
0.0
 10
7.42841134150184
 20
-0.4210148702172774
 30
0.0
 10
7.42841134150184
 20
-0.4210148702172774
 30
0.0
 10
7.42841134150184
 20
-0.3844819383598406
 30
0.0
 10
7.407140589548715
 20
-0.3529911885766523
 30
0.0
 10
7.376358525746935
 20
-0.3380138394027199
 30
0.0
 10
7.376358525746935
 20
-0.3380138394027199
 30
0.0
 10
6.948522425486189
 20
-0.3380138394027199
 30
0.0
 10
6.948522425486189
 20
-0.3380138394027199
 30
0.0
 10
6.917740361684409
 20
-0.3529911885766523
 30
0.0
 10
6.896469609731284
 20
-0.3844819383598406
 30
0.0
 10
6.896469609731284
 20
-0.4210148702172774
 30
0.0
 10
6.896469609731284
 20
-0.4210148702172774
 30
0.0
 10
6.900074074791846
 20
-4.73813997872503
 30
0.0
 10
6.900074074791846
 20
-4.73813997872503
 30
0.0
 10
6.900074074791846
 20
-4.73813997872503
 30
0.0
 10
6.618128952179504
 20
-4.73813997872503
 30
0.0
 10
6.618128952179504
 20
-4.73813997872503
 30
0.0
 10
6.618128952179504
 20
-4.73813997872503
 30
0.0
 10
6.617481301354346
 20
-0.4210148702172774
 30
0.0
 10
6.617481301354346
 20
-0.4210148702172774
 30
0.0
 10
6.617481301354346
 20
-0.3844819383598406
 30
0.0
 10
6.596210549401221
 20
-0.3529911885766523
 30
0.0
 10
6.565428485599441
 20
-0.3380138394027199
 30
0.0
 10
6.565428485599441
 20
-0.3380138394027199
 30
0.0
 10
6.137592385338721
 20
-0.3380138394027199
 30
0.0
 10
6.137592385338721
 20
-0.3380138394027199
 30
0.0
 10
6.106810321536941
 20
-0.3529911885766523
 30
0.0
 10
6.085539569583816
 20
-0.3844819383598406
 30
0.0
 10
6.085539569583816
 20
-0.4210148702172774
 30
0.0
 10
6.085539569583816
 20
-0.4210148702172774
 30
0.0
 10
6.089144034644378
 20
-4.73813997872503
 30
0.0
 10
6.089144034644378
 20
-4.73813997872503
 30
0.0
 10
6.089144034644378
 20
-4.73813997872503
 30
0.0
 10
5.807202302873847
 20
-4.73813997872503
 30
0.0
 10
5.807202302873847
 20
-4.73813997872503
 30
0.0
 10
5.807202302873847
 20
-4.73813997872503
 30
0.0
 10
5.806551261206878
 20
-0.4210148702172774
 30
0.0
 10
5.806551261206878
 20
-0.4210148702172774
 30
0.0
 10
5.806551261206878
 20
-0.3844819383598406
 30
0.0
 10
5.785280509253753
 20
-0.3529911885766523
 30
0.0
 10
5.754498445451972
 20
-0.3380138394027199
 30
0.0
 10
5.754498445451972
 20
-0.3380138394027199
 30
0.0
 10
5.326665736033064
 20
-0.3380138394027199
 30
0.0
 10
5.326665736033064
 20
-0.3380138394027199
 30
0.0
 10
5.295883672231284
 20
-0.3529911885766523
 30
0.0
 10
5.274612920278159
 20
-0.3844819383598406
 30
0.0
 10
5.274612920278159
 20
-0.4210148702172774
 30
0.0
 10
5.274612920278159
 20
-0.4210148702172774
 30
0.0
 10
5.278217385338721
 20
-4.73813997872503
 30
0.0
 10
5.278217385338721
 20
-4.73813997872503
 30
0.0
 10
5.278217385338721
 20
-4.73813997872503
 30
0.0
 10
4.996275653568191
 20
-4.73813997872503
 30
0.0
 10
4.996275653568191
 20
-4.73813997872503
 30
0.0
 10
4.996275653568191
 20
-4.73813997872503
 30
0.0
 10
4.995624611901221
 20
-0.4210148702172774
 30
0.0
 10
4.995624611901221
 20
-0.4210148702172774
 30
0.0
 10
4.995624611901221
 20
-0.3844819383598406
 30
0.0
 10
4.974353859948096
 20
-0.3529911885766523
 30
0.0
 10
4.943571796146316
 20
-0.3380138394027199
 30
0.0
 10
4.943571796146316
 20
-0.3380138394027199
 30
0.0
 10
4.515739086727408
 20
-0.3380138394027199
 30
0.0
 10
4.515739086727408
 20
-0.3380138394027199
 30
0.0
 10
4.484957022925628
 20
-0.3529911885766523
 30
0.0
 10
4.463686270972503
 20
-0.3844819383598406
 30
0.0
 10
4.463686270972503
 20
-0.4210148702172774
 30
0.0
 10
4.463686270972503
 20
-0.4210148702172774
 30
0.0
 10
4.463686270972503
 20
-5.732568825295402
 30
0.0
 10
4.463686270972503
 20
-5.732568825295402
 30
0.0
 10
4.463686270972503
 20
-5.843025503898843
 30
0.0
 10
4.553229083743972
 20
-5.932567468959405
 30
0.0
 10
4.663685762346504
 20
-5.932567468959405
 30
0.0
 10
4.663685762346504
 20
-5.932567468959405
 30
0.0
 10
8.697355128122934
 20
-5.932567468959405
 30
0.0
 10
8.697355128122934
 20
-5.932567468959405
 30
0.0
 10
8.697355128122934
 20
-5.932567468959405
 30
0.0
 10
8.697355128122934
 20
-5.532566790791406
 30
0.0
 10
8.697355128122934
 20
-5.532566790791406
 30
0.0
 10
8.697355128122934
 20
-5.422113503029777
 30
0.0
 10
8.607813163062372
 20
-5.332568147127403
 30
0.0
 10
8.497356484459841
 20
-5.332568147127403
 30
0.0
 10
8.497356484459841
 20
-5.332568147127403
 30
0.0
 10
4.68835752883966
 20
-5.332568147127403
 30
0.0
 10
4.68835752883966
 20
-5.332568147127403
 30
0.0
 10
4.633126646407036
 20
-5.332568147127403
 30
0.0
 10
4.588353968454939
 20
-5.287792078334405
 30
0.0
 10
4.588357359297661
 20
-5.232562043611778
 30
0.0
 10
4.588357359297661
 20
-5.232562043611778
 30
0.0
 10
4.588682880130691
 20
-0.8290484531175934
 30
0.0
 10
4.588682880130691
 20
-0.8290484531175934
 30
0.0
 10
4.588682880130691
 20
-0.8290484531175934
 30
0.0
 10
4.870628002743033
 20
-0.8290484531175934
 30
0.0
 10
4.870628002743033
 20
-0.8290484531175934
 30
0.0
 10
4.870628002743033
 20
-0.8290484531175934
 30
0.0
 10
4.871275653568191
 20
-5.146173561623527
 30
0.0
 10
4.871275653568191
 20
-5.146173561623527
 30
0.0
 10
4.871275653568191
 20
-5.197178607197656
 30
0.0
 10
4.912623581085754
 20
-5.238533316398843
 30
0.0
 10
4.963635408342597
 20
-5.238533316398843
 30
0.0
 10
4.963635408342597
 20
-5.238533316398843
 30
0.0
 10
5.310854239722503
 20
-5.238533316398843
 30
0.0
 10
5.310854239722503
 20
-5.238533316398843
 30
0.0
 10
5.361862676137534
 20
-5.238533316398843
 30
0.0
 10
5.403213994496909
 20
-5.197178607197656
 30
0.0
 10
5.403213994496909
 20
-5.146173561623527
 30
0.0
 10
5.403213994496909
 20
-5.146173561623527
 30
0.0
 10
5.399612920278159
 20
-0.8290484531175934
 30
0.0
 10
5.399612920278159
 20
-0.8290484531175934
 30
0.0
 10
5.399612920278159
 20
-0.8290484531175934
 30
0.0
 10
5.681554652048689
 20
-0.8290484531175934
 30
0.0
 10
5.681554652048689
 20
-0.8290484531175934
 30
0.0
 10
5.681554652048689
 20
-0.8290484531175934
 30
0.0
 10
5.682202302873847
 20
-5.146173561623527
 30
0.0
 10
5.682202302873847
 20
-5.146173561623527
 30
0.0
 10
5.682202302873847
 20
-5.197178607197656
 30
0.0
 10
5.723550230391411
 20
-5.238533316398843
 30
0.0
 10
5.774562057648254
 20
-5.238533316398843
 30
0.0
 10
5.774562057648254
 20
-5.238533316398843
 30
0.0
 10
6.121784279869971
 20
-5.238533316398843
 30
0.0
 10
6.121784279869971
 20
-5.238533316398843
 30
0.0
 10
6.172792716285003
 20
-5.238533316398843
 30
0.0
 10
6.214144034644378
 20
-5.197178607197656
 30
0.0
 10
6.214144034644378
 20
-5.146173561623527
 30
0.0
 10
6.214144034644378
 20
-5.146173561623527
 30
0.0
 10
6.210539569583816
 20
-0.8290484531175934
 30
0.0
 10
6.210539569583816
 20
-0.8290484531175934
 30
0.0
 10
6.210539569583816
 20
-0.8290484531175934
 30
0.0
 10
6.492481301354346
 20
-0.8290484531175934
 30
0.0
 10
6.492481301354346
 20
-0.8290484531175934
 30
0.0
 10
6.492481301354346
 20
-0.8290484531175934
 30
0.0
 10
6.493132343021316
 20
-5.146173561623527
 30
0.0
 10
6.493132343021316
 20
-5.146173561623527
 30
0.0
 10
6.493132343021316
 20
-5.197178607197656
 30
0.0
 10
6.534480270538879
 20
-5.238533316398843
 30
0.0
 10
6.585492097795698
 20
-5.238533316398843
 30
0.0
 10
6.585492097795698
 20
-5.238533316398843
 30
0.0
 10
6.932710929175628
 20
-5.238533316398843
 30
0.0
 10
6.932710929175628
 20
-5.238533316398843
 30
0.0
 10
6.983719365590659
 20
-5.238533316398843
 30
0.0
 10
7.025070683950034
 20
-5.197178607197656
 30
0.0
 10
7.025070683950034
 20
-5.146173561623527
 30
0.0
 10
7.025070683950034
 20
-5.146173561623527
 30
0.0
 10
7.021469609731284
 20
-0.8290484531175934
 30
0.0
 10
7.021469609731284
 20
-0.8290484531175934
 30
0.0
 10
7.021469609731284
 20
-0.8290484531175934
 30
0.0
 10
7.30341134150184
 20
-0.8290484531175934
 30
0.0
 10
7.30341134150184
 20
-0.8290484531175934
 30
0.0
 10
7.30341134150184
 20
-0.8290484531175934
 30
0.0
 10
7.304058992326998
 20
-5.146173561623527
 30
0.0
 10
7.304058992326998
 20
-5.146173561623527
 30
0.0
 10
7.304058992326998
 20
-5.197178607197656
 30
0.0
 10
7.345410310686373
 20
-5.238533316398843
 30
0.0
 10
7.396418747101405
 20
-5.238533316398843
 30
0.0
 10
7.396418747101405
 20
-5.238533316398843
 30
0.0
 10
7.743640969323122
 20
-5.238533316398843
 30
0.0
 10
7.743640969323122
 20
-5.238533316398843
 30
0.0
 10
7.794649405738153
 20
-5.238533316398843
 30
0.0
 10
7.836000724097528
 20
-5.197178607197656
 30
0.0
 10
7.836000724097528
 20
-5.146173561623527
 30
0.0
 10
7.836000724097528
 20
-5.146173561623527
 30
0.0
 10
7.832396259036967
 20
-0.8290484531175934
 30
0.0
 10
7.832396259036967
 20
-0.8290484531175934
 30
0.0
 10
7.832396259036967
 20
-0.8290484531175934
 30
0.0
 10
8.114337990807497
 20
-0.8290484531175934
 30
0.0
 10
8.114337990807497
 20
-0.8290484531175934
 30
0.0
 10
8.114337990807497
 20
-0.8290484531175934
 30
0.0
 10
8.114989032474467
 20
-5.146173561623527
 30
0.0
 10
8.114989032474467
 20
-5.146173561623527
 30
0.0
 10
8.114989032474467
 20
-5.197178607197656
 30
0.0
 10
8.156340350833842
 20
-5.238533316398843
 30
0.0
 10
8.207348787248873
 20
-5.238533316398843
 30
0.0
 10
8.207348787248873
 20
-5.238533316398843
 30
0.0
 10
8.55456677091878
 20
-5.238533316398843
 30
0.0
 10
8.55456677091878
 20
-5.238533316398843
 30
0.0
 10
8.605575207332902
 20
-5.238533316398843
 30
0.0
 10
8.646926525693187
 20
-5.197178607197656
 30
0.0
 10
8.646926525693187
 20
-5.146173561623527
 30
0.0
 10
8.646926525693187
 20
-5.146173561623527
 30
0.0
 10
8.643322060631716
 20
-0.8290484531175934
 30
0.0
 10
8.643322060631716
 20
-0.8290484531175934
 30
0.0
 10
8.643322060631716
 20
-0.8290484531175934
 30
0.0
 10
8.925267183244967
 20
-0.8290484531175934
 30
0.0
 10
8.925267183244967
 20
-0.8290484531175934
 30
0.0
 10
8.925267183244967
 20
-0.8290484531175934
 30
0.0
 10
8.938328706682467
 20
-5.146173561623527
 30
0.0
 10
8.938328706682467
 20
-5.146173561623527
 30
0.0
 10
8.938328706682467
 20
-5.197178607197656
 30
0.0
 10
8.979680025041842
 20
-5.238533316398843
 30
0.0
 10
9.030688461456874
 20
-5.238533316398843
 30
0.0
 10
9.030688461456874
 20
-5.238533316398843
 30
0.0
 10
9.377907292836779
 20
-5.238533316398843
 30
0.0
 10
9.377907292836779
 20
-5.238533316398843
 30
0.0
 10
9.428919120093622
 20
-5.238533316398843
 30
0.0
 10
9.470267047611185
 20
-5.197178607197656
 30
0.0
 10
9.470267047611185
 20
-5.146173561623527
 30
0.0
 10
9.470267047611185
 20
-5.146173561623527
 30
0.0
 10
9.466665973392435
 20
-0.8290484531175934
 30
0.0
 10
9.466665973392435
 20
-0.8290484531175934
 30
0.0
 10
9.466665973392435
 20
-0.8290484531175934
 30
0.0
 10
9.748611096005687
 20
-0.8290484531175934
 30
0.0
 10
9.748611096005687
 20
-0.8290484531175934
 30
0.0
 10
9.748611096005687
 20
-0.8290484531175934
 30
0.0
 10
9.749119722307467
 20
-5.232558652769967
 30
0.0
 10
9.749119722307467
 20
-5.232558652769967
 30
0.0
 10
9.749126503991091
 20
-5.287788687492593
 30
0.0
 10
9.704352130618998
 20
-5.332568147127403
 30
0.0
 10
9.64911870505456
 20
-5.332568147127403
 30
0.0
 10
9.64911870505456
 20
-5.332568147127403
 30
0.0
 10
8.997354789038935
 20
-5.332568147127403
 30
0.0
 10
8.997354789038935
 20
-5.332568147127403
 30
0.0
 10
8.886898110436403
 20
-5.332568147127403
 30
0.0
 10
8.797354449954935
 20
-5.422113503029777
 30
0.0
 10
8.797354449954935
 20
-5.532566790791406
 30
0.0
 10
8.797354449954935
 20
-5.532566790791406
 30
0.0
 10
8.797354449954935
 20
-5.932567468959405
 30
0.0
 10
8.797354449954935
 20
-5.932567468959405
 30
0.0
 10
8.797354449954935
 20
-5.932567468959405
 30
0.0
 10
9.674188895484247
 20
-5.932567468959405
 30
0.0
 10
9.674188895484247
 20
-5.932567468959405
 30
0.0
 10
9.784655746613124
 20
-5.932567468959405
 30
0.0
 10
9.874201102515497
 20
-5.843011940529777
 30
0.0
 10
9.874190929989152
 20
-5.732545089402719
 30
0.0
 10
9.874190929989152
 20
-5.732545089402719
 30
0.0
 10
9.873607705162966
 20
-0.4210148702172774
 30
0.0
 10
9.873607705162966
 20
-0.4210148702172774
 30
0.0
 10
9.873607705162966
 20
-0.3844819383598406
 30
0.0
 10
9.852336953209841
 20
-0.3529911885766523
 30
0.0
 10
9.82155488940806
 20
-0.3380138394027199
 30
0.0
  0
INSERT
  5
C6
330
70
100
AcDbEntity
  8
Layer 1
100
AcDbBlockReference
  2
Block_7
 10
0.0
 20
0.0
 30
0.0
  0
INSERT
  5
D3
330
70
100
AcDbEntity
  8
Layer 1
100
AcDbBlockReference
  2
Block_9
 10
0.0
 20
0.0
 30
0.0
  0
SPLINE
  5
E1
330
70
100
AcDbEntity
  8
Layer 1
 62
   215
420
  9981598
370
    20
100
AcDbSpline
210
0.0
220
0.0
230
1.0
 70
     9
 71
     3
 72
    29
 73
    25
 74
     0
 42
0.0000000001
 43
0.0000000001
 40
0.0
 40
0.0
 40
0.0
 40
0.0
 40
1.0
 40
1.0
 40
1.0
 40
2.0
 40
2.0
 40
2.0
 40
3.0
 40
3.0
 40
3.0
 40
4.0
 40
4.0
 40
4.0
 40
5.0
 40
5.0
 40
5.0
 40
6.0
 40
6.0
 40
6.0
 40
7.0
 40
7.0
 40
7.0
 40
8.0
 40
8.0
 40
8.0
 40
8.0
 10
4.189964772579539
 20
-5.813299275473228
 30
0.0
 10
4.189964772579539
 20
-5.813299275473228
 30
0.0
 10
4.189961007667812
 20
-0.2182461206311675
 30
0.0
 10
4.189961007667812
 20
-0.2182461206311675
 30
0.0
 10
4.189960945985275
 20
-0.1265794068262822
 30
0.0
 10
4.26496093408539
 20
-0.05157935635878
 30
0.0
 10
4.356627647890288
 20
-0.0515793418144944
 30
0.0
 10
4.356627647890288
 20
-0.0515793418144944
 30
0.0
 10
9.926934366410831
 20
-0.0515784580027735
 30
0.0
 10
9.926934366410831
 20
-0.0515784580027735
 30
0.0
 10
10.01860098593925
 20
-0.0515784434585006
 30
0.0
 10
10.0936009978391
 20
-0.1265783929909882
 30
0.0
 10
10.09360105952159
 20
-0.2182450125194085
 30
0.0
 10
10.09360105952159
 20
-0.2182450125194085
 30
0.0
 10
10.09360482443336
 20
-5.813298167361558
 30
0.0
 10
10.09360482443336
 20
-5.813298167361558
 30
0.0
 10
10.0936048861159
 20
-5.904964881166405
 30
0.0
 10
10.01860489801581
 20
-5.979964931633881
 30
0.0
 10
9.926938184210939
 20
-5.979964946178167
 30
0.0
 10
9.926938184210939
 20
-5.979964946178167
 30
0.0
 10
4.356631465690295
 20
-5.979965829989901
 30
0.0
 10
4.356631465690295
 20
-5.979965829989901
 30
0.0
 10
4.264964846161849
 20
-5.979965844534161
 30
0.0
 10
4.189964834262013
 20
-5.904965895001674
 30
0.0
 10
4.189964772579539
 20
-5.813299275473228
 30
0.0
  0
INSERT
  5
E3
330
70
100
AcDbEntity
  8
Layer 1
100
AcDbBlockReference
  2
Block_12
 10
0.0
 20
0.0
 30
0.0
  0
INSERT
  5
EC
330
70
100
AcDbEntity
  8
Layer 1
100
AcDbBlockReference
  2
Block_13
 10
0.0
 20
0.0
 30
0.0
  0
INSERT
  5
141
330
70
100
AcDbEntity
  8
Layer 1
100
AcDbBlockReference
  2
Block_33
 10
0.0
 20
0.0
 30
0.0
  0
MTEXT
  5
152
330
70
100
AcDbEntity
  8
Layer 1
100
AcDbMText
 10
6.052619934082031
 20
2.903956532478332
 30
0.0
 40
0.2
 41
0.0
 46
0.0
 71
     7
 72
     1
  1
\C250;\c2105123;\FMyriad Pro|b0|i0|c1;\H0.206500;\W1.000000;Components 
 73
     1
 44
1.0
  0
MTEXT
  5
153
330
70
100
AcDbEntity
  8
Layer 1
100
AcDbMText
 10
6.879491170247395
 20
1.365640216403537
 30
0.0
 40
0.2
 41
0.0
 46
0.0
 71
     7
 72
     1
  1
\C250;\c2105123;\FMyriad Pro|b0|i0|c1;\H0.118000;\W1.000000;RGB LED Board
 73
     1
 44
1.0
  0
MTEXT
  5
154
330
70
100
AcDbEntity
  8
Layer 1
100
AcDbMText
 10
8.366609361436632
 20
2.295697212219238
 30
0.0
 40
0.2
 41
0.0
 46
0.0
 71
     7
 72
     1
  1
\C250;\c2105123;\FMyriad Pro|b0|i0|c1;\H0.118000;\W1.000000;4 Pad Bus Connector
 73
     1
 44
1.0
  0
MTEXT
  5
155
330
70
100
AcDbEntity
  8
Layer 1
100
AcDbMText
 10
5.503064473470051
 20
2.23282061682807
 30
0.0
 40
0.2
 41
0.0
 46
0.0
 71
     7
 72
     1
  1
\C250;\c2105123;\FMyriad Pro|b0|i0|c1;\H0.118000;\W1.000000;2 Pad Bus Connector
 73
     1
 44
1.0
  0
INSERT
  5
157
330
70
100
AcDbEntity
  8
Layer 1
100
AcDbBlockReference
  2
Block_35
 10
0.0
 20
0.0
 30
0.0
  0
INSERT
  5
16D
330
70
100
AcDbEntity
  8
Layer 1
100
AcDbBlockReference
  2
Block_36
 10
0.0
 20
0.0
 30
0.0
  0
MTEXT
  5
182
330
70
100
AcDbEntity
  8
Layer 1
100
AcDbMText
 10
9.508731418185762
 20
2.925644530190361
 30
0.0
 40
0.2
 41
0.0
 46
0.0
 71
     7
 72
     1
  1
\C250;\c2105123;\FMyriad Pro|b0|i0|c1;\H0.206500;\W1.000000;Example Complete Bus File
 73
     1
 44
1.0
  0
INSERT
  5
184
330
70
100
AcDbEntity
  8
Layer 1
100
AcDbBlockReference
  2
Block_37
 10
0.0
 20
0.0
 30
0.0
  0
MTEXT
  5
199
330
70
100
AcDbEntity
  8
Layer 1
100
AcDbMText
 10
4.898287455240884
 20
0.2365226745605469
 30
0.0
 40
0.2
 41
0.0
 46
0.0
 71
     7
 72
     1
  1
\C250;\c2105123;\FMyriad Pro|b0|i0|c1;\H0.206500;\W1.000000;Example Complete 7.2V Heater  File
 73
     1
 44
1.0
  0
MTEXT
  5
19A
330
70
100
AcDbEntity
  8
Layer 1
100
AcDbMText
 10
-3.093133078681097
 20
2.76567514737447
 30
0.0
 40
0.2
 41
0.0
 46
0.0
 71
     7
 72
     1
  1
\C250;\c2105123;\FMyriad Pro|b0|i0|c1;\H0.206500;\W1.000000;Template Bus Geometries
 73
     1
 44
1.0
  0
MTEXT
  5
19B
330
70
100
AcDbEntity
  8
Layer 1
100
AcDbMText
 10
5.313273111979166
 20
-7.202460394965277
 30
0.0
 40
0.2
 41
0.0
 46
0.0
 71
     7
 72
     1
  1
\C250;\c2105123;\FMyriad Pro|b0|i0|c1;\H0.206500;\W1.000000;For DXF Import, Scale to 1 inch = 1 unit
 73
     1
 44
1.0
  0
ENDSEC
  0
SECTION
  2
OBJECTS
  0
DICTIONARY
  5
C
330
0
100
AcDbDictionary
281
     1
  3
ACAD_COLOR
350
63
  3
ACAD_DETAILVIEWSTYLE
350
6A
  3
ACAD_GROUP
350
D
  3
ACAD_LAYOUT
350
62
  3
ACAD_MATERIAL
350
10
  3
ACAD_MLEADERSTYLE
350
66
  3
ACAD_MLINESTYLE
350
5F
  3
ACAD_PLOTSETTINGS
350
61
  3
ACAD_PLOTSTYLENAME
350
E
  3
ACAD_SCALELIST
350
42
  3
ACAD_SECTIONVIEWSTYLE
350
68
  3
ACAD_TABLESTYLE
350
64
  3
ACAD_VISUALSTYLE
350
29
  3
ACDB_RECOMPOSE_DATA
350
1A4
  3
AcDbVariableDictionary
350
19C
  0
DICTIONARY
  5
63
102
{ACAD_REACTORS
330
C
102
}
330
C
100
AcDbDictionary
281
     1
  0
DICTIONARY
  5
6A
102
{ACAD_REACTORS
330
C
102
}
330
C
100
AcDbDictionary
281
     1
  3
Imperial24
350
6B
  0
DICTIONARY
  5
D
102
{ACAD_REACTORS
330
C
102
}
330
C
100
AcDbDictionary
281
     1
  0
DICTIONARY
  5
62
102
{ACAD_REACTORS
330
C
102
}
330
C
100
AcDbDictionary
281
     1
  3
Layout1
350
6F
  3
Layout2
350
77
  3
Model
350
73
  0
DICTIONARY
  5
10
102
{ACAD_REACTORS
330
C
102
}
330
C
100
AcDbDictionary
281
     1
  3
ByBlock
350
19
  3
ByLayer
350
11
  3
Global
350
21
  0
DICTIONARY
  5
66
102
{ACAD_REACTORS
330
C
102
}
330
C
100
AcDbDictionary
281
     1
  3
Standard
350
67
  0
DICTIONARY
  5
5F
102
{ACAD_REACTORS
330
C
102
}
330
C
100
AcDbDictionary
281
     1
  3
Standard
350
60
  0
DICTIONARY
  5
61
102
{ACAD_REACTORS
330
C
102
}
330
C
100
AcDbDictionary
281
     1
  0
ACDBDICTIONARYWDFLT
  5
E
102
{ACAD_REACTORS
330
C
102
}
330
C
100
AcDbDictionary
281
     1
  3
Normal
350
F
100
AcDbDictionaryWithDefault
340
F
  0
DICTIONARY
  5
42
102
{ACAD_REACTORS
330
C
102
}
330
C
100
AcDbDictionary
281
     1
  3
A0
350
43
  3
A1
350
44
  3
A2
350
45
  3
A3
350
46
  3
A4
350
47
  3
A5
350
48
  3
A6
350
49
  3
A7
350
4A
  3
A8
350
4B
  3
A9
350
4C
  3
B0
350
4D
  3
B1
350
4E
  3
B2
350
4F
  3
B3
350
50
  3
B4
350
51
  3
B5
350
52
  3
B6
350
53
  0
DICTIONARY
  5
68
102
{ACAD_REACTORS
330
C
102
}
330
C
100
AcDbDictionary
281
     1
  3
Imperial24
350
69
  0
DICTIONARY
  5
64
102
{ACAD_REACTORS
330
C
102
}
330
C
100
AcDbDictionary
281
     1
  3
Standard
350
65
  0
DICTIONARY
  5
29
102
{ACAD_REACTORS
330
C
102
}
330
C
100
AcDbDictionary
281
     1
  3
2dWireframe
350
2F
  3
Basic
350
2E
  3
Brighten
350
35
  3
ColorChange
350
39
  3
Conceptual
350
32
  3
Dim
350
34
  3
EdgeColorOff
350
41
  3
Facepattern
350
38
  3
Flat
350
2A
  3
FlatWithEdges
350
2B
  3
Gouraud
350
2C
  3
GouraudWithEdges
350
2D
  3
Hidden
350
31
  3
JitterOff
350
3F
  3
Linepattern
350
37
  3
OverhangOff
350
40
  3
Realistic
350
33
  3
Shaded
350
3E
  3
Shaded with edges
350
3D
  3
Shades of Gray
350
3A
  3
Sketchy
350
3B
  3
Thicken
350
36
  3
Wireframe
350
30
  3
X-Ray
350
3C
  0
XRECORD
  5
1A4
102
{ACAD_REACTORS
330
C
102
}
330
C
100
AcDbXrecord
280
     1
 90
        1
330
65
  0
DICTIONARY
  5
19C
102
{ACAD_REACTORS
330
C
102
}
330
C
100
AcDbDictionary
281
     1
  3
CANNOSCALE
350
1A1
  3
CMLEADERSTYLE
350
19E
  3
CTABLESTYLE
350
19D
  3
CVIEWDETAILSTYLE
350
19F
  3
CVIEWSECTIONSTYLE
350
1A0
  0
ACDBDETAILVIEWSTYLE
  5
6B
102
{ACAD_REACTORS
330
6A
102
}
330
6A
100
AcDbModelDocViewStyle
 70
     0
  3
Imperial24
290
     1
300
Imperial24
 90
        0
100
AcDbDetailViewStyle
 70
     0
 71
     0
 90
        3
 71
     1
340
55
 62
   256
 40
0.24
340
0
 62
   256
 40
0.24
300

 40
0.36
280
     3
 71
     2
340
5D
 90
       25
 62
   256
 71
     3
340
55
 62
   256
 40
0.24
 90
        1
 40
0.75
 90
        1
300
%<\AcVar ViewType \f "%tc1">% %<\AcVar ViewDetailId>%\PSCALE %<\AcVar ViewScale \f "%sn">%
 71
     4
340
5D
 90
       25
 62
   256
340
5D
 90
       25
 62
   256
280
     0
  0
LAYOUT
  5
6F
102
{ACAD_REACTORS
330
62
102
}
330
62
100
AcDbPlotSettings
  1

  2

  4

  6

 40
0.0
 41
0.0
 42
0.0
 43
0.0
 44
0.0
 45
0.0
 46
0.0
 47
0.0
 48
0.0
 49
0.0
140
0.0
141
0.0
142
1.0
143
1.0
 70
   688
 72
     0
 73
     0
 74
     5
  7

 75
    16
147
1.0
 76
     0
 77
     2
 78
   300
148
0.0
149
0.0
100
AcDbLayout
  1
Layout1
 70
     1
 71
     1
 10
0.0
 20
0.0
 11
12.0
 21
9.0
 12
0.0
 22
0.0
 32
0.0
 14
0.0
 24
0.0
 34
0.0
 15
0.0
 25
0.0
 35
0.0
146
0.0
 13
0.0
 23
0.0
 33
0.0
 16
1.0
 26
0.0
 36
0.0
 17
0.0
 27
1.0
 37
0.0
 76
     0
330
6C
  0
LAYOUT
  5
77
102
{ACAD_REACTORS
330
62
102
}
330
62
100
AcDbPlotSettings
  1

  2

  4

  6

 40
0.0
 41
0.0
 42
0.0
 43
0.0
 44
0.0
 45
0.0
 46
0.0
 47
0.0
 48
0.0
 49
0.0
140
0.0
141
0.0
142
1.0
143
1.0
 70
   688
 72
     0
 73
     0
 74
     5
  7

 75
    16
147
1.0
 76
     0
 77
     2
 78
   300
148
0.0
149
0.0
100
AcDbLayout
  1
Layout2
 70
     1
 71
     2
 10
0.0
 20
0.0
 11
12.0
 21
9.0
 12
0.0
 22
0.0
 32
0.0
 14
0.0
 24
0.0
 34
0.0
 15
0.0
 25
0.0
 35
0.0
146
0.0
 13
0.0
 23
0.0
 33
0.0
 16
1.0
 26
0.0
 36
0.0
 17
0.0
 27
1.0
 37
0.0
 76
     0
330
74
  0
LAYOUT
  5
73
102
{ACAD_REACTORS
330
62
102
}
330
62
100
AcDbPlotSettings
  1

  2

  4

  6

 40
0.0
 41
0.0
 42
0.0
 43
0.0
 44
0.0
 45
0.0
 46
0.0
 47
0.0
 48
0.0
 49
0.0
140
0.0
141
0.0
142
1.0
143
1.0
 70
  1712
 72
     0
 73
     0
 74
     0
  7

 75
     0
147
1.0
 76
     0
 77
     2
 78
   300
148
0.0
149
0.0
100
AcDbLayout
  1
Model
 70
     1
 71
     0
 10
0.0
 20
0.0
 11
12.0
 21
9.0
 12
0.0
 22
0.0
 32
0.0
 14
0.0
 24
0.0
 34
0.0
 15
0.0
 25
0.0
 35
0.0
146
0.0
 13
0.0
 23
0.0
 33
0.0
 16
1.0
 26
0.0
 36
0.0
 17
0.0
 27
1.0
 37
0.0
 76
     0
330
70
  0
MATERIAL
  5
19
102
{ACAD_XDICTIONARY
360
1A
102
}
102
{ACAD_REACTORS
330
10
102
}
330
10
100
AcDbMaterial
  1
ByBlock
 72
     0
 43
0.0208333333333333
 43
0.0
 43
0.0
 43
0.0
 43
0.0
 43
0.0208333333333333
 43
0.0
 43
0.0
 43
0.0
 43
0.0
 43
1.0
 43
0.0
 43
0.0
 43
0.0
 43
0.0
 43
1.0
 77
     0
 47
0.0208333333333333
 47
0.0
 47
0.0
 47
0.0
 47
0.0
 47
0.0208333333333333
 47
0.0
 47
0.0
 47
0.0
 47
0.0
 47
1.0
 47
0.0
 47
0.0
 47
0.0
 47
0.0
 47
1.0
171
     0
 49
0.0208333333333333
 49
0.0
 49
0.0
 49
0.0
 49
0.0
 49
0.0208333333333333
 49
0.0
 49
0.0
 49
0.0
 49
0.0
 49
1.0
 49
0.0
 49
0.0
 49
0.0
 49
0.0
 49
1.0
175
     0
142
0.0208333333333333
142
0.0
142
0.0
142
0.0
142
0.0
142
0.0208333333333333
142
0.0
142
0.0
142
0.0
142
0.0
142
1.0
142
0.0
142
0.0
142
0.0
142
0.0
142
1.0
179
     0
144
0.0208333333333333
144
0.0
144
0.0
144
0.0
144
0.0
144
0.0208333333333333
144
0.0
144
0.0
144
0.0
144
0.0
144
1.0
144
0.0
144
0.0
144
0.0
144
0.0
144
1.0
147
0.0208333333333333
147
0.0
147
0.0
147
0.0
147
0.0
147
0.0208333333333333
147
0.0
147
0.0
147
0.0
147
0.0
147
1.0
147
0.0
147
0.0
147
0.0
147
0.0
147
1.0
  0
MATERIAL
  5
11
102
{ACAD_XDICTIONARY
360
12
102
}
102
{ACAD_REACTORS
330
10
102
}
330
10
100
AcDbMaterial
  1
ByLayer
 72
     0
 43
0.0208333333333333
 43
0.0
 43
0.0
 43
0.0
 43
0.0
 43
0.0208333333333333
 43
0.0
 43
0.0
 43
0.0
 43
0.0
 43
1.0
 43
0.0
 43
0.0
 43
0.0
 43
0.0
 43
1.0
 77
     0
 47
0.0208333333333333
 47
0.0
 47
0.0
 47
0.0
 47
0.0
 47
0.0208333333333333
 47
0.0
 47
0.0
 47
0.0
 47
0.0
 47
1.0
 47
0.0
 47
0.0
 47
0.0
 47
0.0
 47
1.0
171
     0
 49
0.0208333333333333
 49
0.0
 49
0.0
 49
0.0
 49
0.0
 49
0.0208333333333333
 49
0.0
 49
0.0
 49
0.0
 49
0.0
 49
1.0
 49
0.0
 49
0.0
 49
0.0
 49
0.0
 49
1.0
175
     0
142
0.0208333333333333
142
0.0
142
0.0
142
0.0
142
0.0
142
0.0208333333333333
142
0.0
142
0.0
142
0.0
142
0.0
142
1.0
142
0.0
142
0.0
142
0.0
142
0.0
142
1.0
179
     0
144
0.0208333333333333
144
0.0
144
0.0
144
0.0
144
0.0
144
0.0208333333333333
144
0.0
144
0.0
144
0.0
144
0.0
144
1.0
144
0.0
144
0.0
144
0.0
144
0.0
144
1.0
147
0.0208333333333333
147
0.0
147
0.0
147
0.0
147
0.0
147
0.0208333333333333
147
0.0
147
0.0
147
0.0
147
0.0
147
1.0
147
0.0
147
0.0
147
0.0
147
0.0
147
1.0
  0
MATERIAL
  5
21
102
{ACAD_XDICTIONARY
360
22
102
}
102
{ACAD_REACTORS
330
10
102
}
330
10
100
AcDbMaterial
  1
Global
 72
     0
 43
0.0208333333333333
 43
0.0
 43
0.0
 43
0.0
 43
0.0
 43
0.0208333333333333
 43
0.0
 43
0.0
 43
0.0
 43
0.0
 43
1.0
 43
0.0
 43
0.0
 43
0.0
 43
0.0
 43
1.0
 77
     0
 47
0.0208333333333333
 47
0.0
 47
0.0
 47
0.0
 47
0.0
 47
0.0208333333333333
 47
0.0
 47
0.0
 47
0.0
 47
0.0
 47
1.0
 47
0.0
 47
0.0
 47
0.0
 47
0.0
 47
1.0
171
     0
 49
0.0208333333333333
 49
0.0
 49
0.0
 49
0.0
 49
0.0
 49
0.0208333333333333
 49
0.0
 49
0.0
 49
0.0
 49
0.0
 49
1.0
 49
0.0
 49
0.0
 49
0.0
 49
0.0
 49
1.0
175
     0
142
0.0208333333333333
142
0.0
142
0.0
142
0.0
142
0.0
142
0.0208333333333333
142
0.0
142
0.0
142
0.0
142
0.0
142
1.0
142
0.0
142
0.0
142
0.0
142
0.0
142
1.0
179
     0
144
0.0208333333333333
144
0.0
144
0.0
144
0.0
144
0.0
144
0.0208333333333333
144
0.0
144
0.0
144
0.0
144
0.0
144
1.0
144
0.0
144
0.0
144
0.0
144
0.0
144
1.0
147
0.0208333333333333
147
0.0
147
0.0
147
0.0
147
0.0
147
0.0208333333333333
147
0.0
147
0.0
147
0.0
147
0.0
147
1.0
147
0.0
147
0.0
147
0.0
147
0.0
147
1.0
  0
MLEADERSTYLE
  5
67
102
{ACAD_REACTORS
330
66
102
}
330
66
100
AcDbMLeaderStyle
179
     2
170
     2
171
     1
172
     0
 90
        2
 40
0.0
 41
0.0
173
     1
 91
-1056964608
340
5B
 92
       -2
290
     1
 42
0.09
291
     1
 43
0.36
  3
Standard
 44
0.18
300

342
55
174
     1
178
     6
175
     1
176
     0
 93
-1056964608
 45
0.18
292
     0
297
     0
 46
0.18
 94
-1056964608
 47
1.0
 49
1.0
140
1.0
293
     1
141
0.0
294
     1
177
     0
142
1.0
295
     1
296
     0
143
0.125
271
     0
272
     9
273
     9
298
     1
  0
MLINESTYLE
  5
60
102
{ACAD_REACTORS
330
5F
102
}
330
5F
100
AcDbMlineStyle
  2
STANDARD
 70
     0
  3

 62
   256
 51
90.0
 52
90.0
 71
     2
 49
0.5
 62
   256
  6
BYLAYER
 49
-0.5
 62
   256
  6
BYLAYER
  0
ACDBPLACEHOLDER
  5
F
102
{ACAD_REACTORS
330
E
102
}
330
E
  0
SCALE
  5
43
102
{ACAD_REACTORS
330
42
102
}
330
42
100
AcDbScale
 70
     0
300
1:1
140
1.0
141
1.0
290
     1
  0
SCALE
  5
44
102
{ACAD_REACTORS
330
42
102
}
330
42
100
AcDbScale
 70
     0
300
1/128" = 1'-0"
140
0.0078125
141
12.0
290
     0
  0
SCALE
  5
45
102
{ACAD_REACTORS
330
42
102
}
330
42
100
AcDbScale
 70
     0
300
1/64" = 1'-0"
140
0.015625
141
12.0
290
     0
  0
SCALE
  5
46
102
{ACAD_REACTORS
330
42
102
}
330
42
100
AcDbScale
 70
     0
300
1/32" = 1'-0"
140
0.03125
141
12.0
290
     0
  0
SCALE
  5
47
102
{ACAD_REACTORS
330
42
102
}
330
42
100
AcDbScale
 70
     0
300
1/16" = 1'-0"
140
0.0625
141
12.0
290
     0
  0
SCALE
  5
48
102
{ACAD_REACTORS
330
42
102
}
330
42
100
AcDbScale
 70
     0
300
3/32" = 1'-0"
140
0.09375
141
12.0
290
     0
  0
SCALE
  5
49
102
{ACAD_REACTORS
330
42
102
}
330
42
100
AcDbScale
 70
     0
300
1/8" = 1'-0"
140
0.125
141
12.0
290
     0
  0
SCALE
  5
4A
102
{ACAD_REACTORS
330
42
102
}
330
42
100
AcDbScale
 70
     0
300
3/16" = 1'-0"
140
0.1875
141
12.0
290
     0
  0
SCALE
  5
4B
102
{ACAD_REACTORS
330
42
102
}
330
42
100
AcDbScale
 70
     0
300
1/4" = 1'-0"
140
0.25
141
12.0
290
     0
  0
SCALE
  5
4C
102
{ACAD_REACTORS
330
42
102
}
330
42
100
AcDbScale
 70
     0
300
3/8" = 1'-0"
140
0.375
141
12.0
290
     0
  0
SCALE
  5
4D
102
{ACAD_REACTORS
330
42
102
}
330
42
100
AcDbScale
 70
     0
300
1/2" = 1'-0"
140
0.5
141
12.0
290
     0
  0
SCALE
  5
4E
102
{ACAD_REACTORS
330
42
102
}
330
42
100
AcDbScale
 70
     0
300
3/4" = 1'-0"
140
0.75
141
12.0
290
     0
  0
SCALE
  5
4F
102
{ACAD_REACTORS
330
42
102
}
330
42
100
AcDbScale
 70
     0
300
1" = 1'-0"
140
1.0
141
12.0
290
     0
  0
SCALE
  5
50
102
{ACAD_REACTORS
330
42
102
}
330
42
100
AcDbScale
 70
     0
300
1-1/2" = 1'-0"
140
1.5
141
12.0
290
     0
  0
SCALE
  5
51
102
{ACAD_REACTORS
330
42
102
}
330
42
100
AcDbScale
 70
     0
300
3" = 1'-0"
140
3.0
141
12.0
290
     0
  0
SCALE
  5
52
102
{ACAD_REACTORS
330
42
102
}
330
42
100
AcDbScale
 70
     0
300
6" = 1'-0"
140
6.0
141
12.0
290
     0
  0
SCALE
  5
53
102
{ACAD_REACTORS
330
42
102
}
330
42
100
AcDbScale
 70
     0
300
1'-0" = 1'-0"
140
12.0
141
12.0
290
     0
  0
ACDBSECTIONVIEWSTYLE
  5
69
102
{ACAD_REACTORS
330
68
102
}
330
68
100
AcDbModelDocViewStyle
 70
     0
  3
Imperial24
290
     1
300
Imperial24
 90
        0
100
AcDbSectionViewStyle
 70
     0
 71
     0
 90
       78
 71
     1
340
55
 62
   256
 40
0.24
340
0
340
0
 62
   256
 40
0.24
300
I, O, Q, S, X, Z
 40
0.48
 90
        3
 40
0.18
 90
        1
 71
     2
340
5D
 90
       25
 62
   256
340
5D
 90
       50
 62
   256
 40
0.24
 40
0.0
 40
0.24
 71
     3
340
55
 62
   256
 40
0.24
 90
        1
 40
0.75
 90
        1
300
%<\AcVar ViewType \f "%tc1">% %<\AcVar ViewSectionStartId>%-%<\AcVar ViewSectionEndId>%\PSCALE %<\AcVar ViewScale \f "%sn">%
 71
     4
 62
   256
 62
   257
300
ANSI31
 40
1.0
 90
        0
290
     0
290
     0
 90
        6
 40
0.0
 40
1.570796326794896
 40
0.2617993877991494
 40
1.308996938995747
 40
-0.2617993877991494
 40
1.832595714594046
  0
TABLESTYLE
  5
65
102
{ACAD_XDICTIONARY
360
1A2
102
}
102
{ACAD_REACTORS
330
64
102
}
330
64
100
AcDbTableStyle
280
     0
  3
Standard
 70
     0
 71
     0
 40
0.06
 41
0.06
280
     0
281
     0
  7
Standard
140
0.18
170
     2
 62
     0
 63
     7
283
     0
 90
      512
 91
        0
  1

274
    -2
284
     1
 64
     0
275
    -2
285
     1
 65
     0
276
    -2
286
     1
 66
     0
277
    -2
287
     1
 67
     0
278
    -2
288
     1
 68
     0
279
    -2
289
     1
 69
     0
  7
Standard
140
0.25
170
     5
 62
     0
 63
     7
283
     0
 90
      512
 91
        0
  1

274
    -2
284
     1
 64
     0
275
    -2
285
     1
 65
     0
276
    -2
286
     1
 66
     0
277
    -2
287
     1
 67
     0
278
    -2
288
     1
 68
     0
279
    -2
289
     1
 69
     0
  7
Standard
140
0.18
170
     5
 62
     0
 63
     7
283
     0
 90
      512
 91
        0
  1

274
    -2
284
     1
 64
     0
275
    -2
285
     1
 65
     0
276
    -2
286
     1
 66
     0
277
    -2
287
     1
 67
     0
278
    -2
288
     1
 68
     0
279
    -2
289
     1
 69
     0
  0
VISUALSTYLE
  5
2F
102
{ACAD_REACTORS
330
29
102
}
330
29
100
AcDbVisualStyle
  2
2dWireframe
 70
     4
177
     3
291
     0
 70
    58
 90
        0
176
     1
 90
        2
176
     1
 90
        0
176
     1
 90
        0
176
     1
 40
0.6
176
     1
 40
30.0
176
     1
 62
     7
420
 16777215
176
     1
 90
        1
176
     1
 90
        4
176
     1
 62
     7
176
     1
 62
   257
176
     1
 90
        1
176
     1
 90
        1
176
     1
 40
1.0
176
     1
 90
        0
176
     1
 62
   257
176
     1
 40
1.0
176
     1
 90
        1
176
     1
 90
        6
176
     1
 90
        2
176
     1
 62
     7
176
     1
 90
        5
176
     1
 90
        0
176
     1
 90
        0
176
     1
290
     0
176
     1
 90
        1
176
     1
 40
0.0
176
     1
 90
        0
176
     1
290
     1
176
     1
290
     1
176
     1
290
     0
176
     1
290
     0
176
     1
290
     0
176
     1
290
     0
176
     1
290
     0
176
     1
290
     0
176
     1
290
     0
176
     1
 90
       50
176
     1
 40
0.0
176
     1
 40
1.0
176
     1
 90
        0
176
     1
 62
    18
420
        0
176
     1
 90
       50
176
     1
 90
        3
176
     1
 62
     5
420
      255
176
     1
290
     0
176
     1
 90
       50
176
     1
 90
       50
176
     1
 90
       50
176
     1
290
     0
176
     1
 90
       50
176
     1
 62
   256
176
     0
 40
1.0
176
     0
 90
        2
176
     1
  1
strokes_ogs.tif
176
     1
290
     0
176
     1
 40
1.0
176
     1
 40
1.0
176
     1
  0
VISUALSTYLE
  5
2E
102
{ACAD_REACTORS
330
29
102
}
330
29
100
AcDbVisualStyle
  2
Basic
 70
     7
177
     3
291
     1
 70
    58
 90
        1
176
     1
 90
        0
176
     1
 90
        1
176
     1
 90
        0
176
     1
 40
0.6
176
     1
 40
30.0
176
     1
 62
     7
420
 16777215
176
     1
 90
        0
176
     1
 90
        4
176
     1
 62
     7
176
     1
 62
   257
176
     1
 90
        1
176
     1
 90
        1
176
     1
 40
1.0
176
     1
 90
        8
176
     1
 62
     7
176
     1
 40
1.0
176
     1
 90
        1
176
     1
 90
        6
176
     1
 90
        2
176
     1
 62
     7
176
     1
 90
        5
176
     1
 90
        0
176
     1
 90
        0
176
     1
290
     0
176
     1
 90
        1
176
     1
 40
0.0
176
     1
 90
        0
176
     1
290
     0
176
     1
290
     1
176
     1
290
     1
176
     1
290
     0
176
     1
290
     0
176
     1
290
     0
176
     1
290
     0
176
     1
290
     0
176
     1
290
     0
176
     1
 90
       50
176
     1
 40
0.0
176
     1
 40
1.0
176
     1
 90
        0
176
     1
 62
    18
420
        0
176
     1
 90
       50
176
     1
 90
        3
176
     1
 62
     5
420
      255
176
     1
290
     0
176
     1
 90
       50
176
     1
 90
       50
176
     1
 90
       50
176
     1
290
     0
176
     1
 90
       50
176
     1
 62
   256
176
     0
 40
1.0
176
     0
 90
        2
176
     1
  1
strokes_ogs.tif
176
     1
290
     0
176
     1
 40
1.0
176
     1
 40
1.0
176
     1
  0
VISUALSTYLE
  5
35
102
{ACAD_REACTORS
330
29
102
}
330
29
100
AcDbVisualStyle
  2
Brighten
 70
    12
177
     3
291
     1
 70
    58
 90
        2
176
     1
 90
        2
176
     1
 90
        0
176
     1
 90
        0
176
     1
 40
0.6
176
     1
 40
30.0
176
     1
 62
     7
420
 16777215
176
     1
 90
        1
176
     1
 90
        4
176
     1
 62
     7
176
     1
 62
   257
176
     1
 90
        1
176
     1
 90
        1
176
     1
 40
1.0
176
     1
 90
        8
176
     1
 62
     7
176
     1
 40
1.0
176
     1
 90
        1
176
     1
 90
        6
176
     1
 90
        2
176
     1
 62
     7
176
     1
 90
        5
176
     1
 90
        0
176
     1
 90
        0
176
     1
290
     0
176
     1
 90
        1
176
     1
 40
50.0
176
     1
 90
        0
176
     1
290
     0
176
     1
290
     1
176
     1
290
     1
176
     1
290
     0
176
     1
290
     0
176
     1
290
     0
176
     1
290
     0
176
     1
290
     0
176
     1
290
     0
176
     1
 90
       50
176
     1
 40
0.0
176
     1
 40
1.0
176
     1
 90
        0
176
     1
 62
    18
420
        0
176
     1
 90
       50
176
     1
 90
        3
176
     1
 62
     5
420
      255
176
     1
290
     0
176
     1
 90
       50
176
     1
 90
       50
176
     1
 90
       50
176
     1
290
     0
176
     1
 90
       50
176
     1
 62
   256
176
     0
 40
1.0
176
     0
 90
        2
176
     1
  1
strokes_ogs.tif
176
     1
290
     0
176
     1
 40
1.0
176
     1
 40
1.0
176
     1
  0
VISUALSTYLE
  5
39
102
{ACAD_REACTORS
330
29
102
}
330
29
100
AcDbVisualStyle
  2
ColorChange
 70
    16
177
     3
291
     1
 70
    58
 90
        2
176
     1
 90
        2
176
     1
 90
        3
176
     1
 90
        0
176
     1
 40
0.6
176
     1
 40
30.0
176
     1
 62
     8
420
  8421504
176
     1
 90
        1
176
     1
 90
        4
176
     1
 62
     7
176
     1
 62
   257
176
     1
 90
        1
176
     1
 90
        1
176
     1
 40
1.0
176
     1
 90
        8
176
     1
 62
     8
420
  8421504
176
     1
 40
1.0
176
     1
 90
        1
176
     1
 90
        6
176
     1
 90
        2
176
     1
 62
     7
176
     1
 90
        5
176
     1
 90
        0
176
     1
 90
        0
176
     1
290
     0
176
     1
 90
        1
176
     1
 40
0.0
176
     1
 90
        0
176
     1
290
     0
176
     1
290
     1
176
     1
290
     1
176
     1
290
     0
176
     1
290
     0
176
     1
290
     0
176
     1
290
     0
176
     1
290
     0
176
     1
290
     0
176
     1
 90
       50
176
     1
 40
0.0
176
     1
 40
1.0
176
     1
 90
        0
176
     1
 62
    18
420
        0
176
     1
 90
       50
176
     1
 90
        3
176
     1
 62
     5
420
      255
176
     1
290
     0
176
     1
 90
       50
176
     1
 90
       50
176
     1
 90
       50
176
     1
290
     0
176
     1
 90
       50
176
     1
 62
   256
176
     0
 40
1.0
176
     0
 90
        2
176
     1
  1
strokes_ogs.tif
176
     1
290
     0
176
     1
 40
1.0
176
     1
 40
1.0
176
     1
  0
VISUALSTYLE
  5
32
102
{ACAD_REACTORS
330
29
102
}
330
29
100
AcDbVisualStyle
  2
Conceptual
 70
     9
177
     3
291
     0
 70
    58
 90
        3
176
     1
 90
        2
176
     1
 90
        0
176
     1
 90
        0
176
     1
 40
0.6
176
     1
 40
30.0
176
     1
 62
     7
420
 16777215
176
     1
 90
        2
176
     1
 90
        2
176
     1
 62
     7
176
     1
 62
   257
176
     1
 90
        1
176
     1
 90
        1
176
     1
 40
179.0
176
     1
 90
        8
176
     1
 62
     7
176
     1
 40
1.0
176
     1
 90
        1
176
     1
 90
        6
176
     1
 90
        2
176
     1
 62
     7
176
     1
 90
        3
176
     1
 90
        0
176
     1
 90
        0
176
     1
290
     0
176
     1
 90
        1
176
     1
 40
0.0
176
     1
 90
        0
176
     1
290
     0
176
     1
290
     1
176
     1
290
     1
176
     1
290
     0
176
     1
290
     0
176
     1
290
     0
176
     1
290
     0
176
     1
290
     0
176
     1
290
     0
176
     1
 90
       50
176
     1
 40
0.0
176
     1
 40
1.0
176
     1
 90
        0
176
     1
 62
    18
420
        0
176
     1
 90
       50
176
     1
 90
        3
176
     1
 62
     5
420
      255
176
     1
290
     0
176
     1
 90
       50
176
     1
 90
       50
176
     1
 90
       50
176
     1
290
     0
176
     1
 90
       50
176
     1
 62
   256
176
     0
 40
1.0
176
     0
 90
        2
176
     1
  1
strokes_ogs.tif
176
     1
290
     0
176
     1
 40
1.0
176
     1
 40
1.0
176
     1
  0
VISUALSTYLE
  5
34
102
{ACAD_REACTORS
330
29
102
}
330
29
100
AcDbVisualStyle
  2
Dim
 70
    11
177
     3
291
     1
 70
    58
 90
        2
176
     1
 90
        2
176
     1
 90
        0
176
     1
 90
        0
176
     1
 40
0.6
176
     1
 40
30.0
176
     1
 62
     7
420
 16777215
176
     1
 90
        1
176
     1
 90
        4
176
     1
 62
     7
176
     1
 62
   257
176
     1
 90
        1
176
     1
 90
        1
176
     1
 40
1.0
176
     1
 90
        8
176
     1
 62
     7
176
     1
 40
1.0
176
     1
 90
        1
176
     1
 90
        6
176
     1
 90
        2
176
     1
 62
     7
176
     1
 90
        5
176
     1
 90
        0
176
     1
 90
        0
176
     1
290
     0
176
     1
 90
        1
176
     1
 40
-50.0
176
     1
 90
        0
176
     1
290
     0
176
     1
290
     1
176
     1
290
     1
176
     1
290
     0
176
     1
290
     0
176
     1
290
     0
176
     1
290
     0
176
     1
290
     0
176
     1
290
     0
176
     1
 90
       50
176
     1
 40
0.0
176
     1
 40
1.0
176
     1
 90
        0
176
     1
 62
    18
420
        0
176
     1
 90
       50
176
     1
 90
        3
176
     1
 62
     5
420
      255
176
     1
290
     0
176
     1
 90
       50
176
     1
 90
       50
176
     1
 90
       50
176
     1
290
     0
176
     1
 90
       50
176
     1
 62
   256
176
     0
 40
1.0
176
     0
 90
        2
176
     1
  1
strokes_ogs.tif
176
     1
290
     0
176
     1
 40
1.0
176
     1
 40
1.0
176
     1
  0
VISUALSTYLE
  5
41
102
{ACAD_REACTORS
330
29
102
}
330
29
100
AcDbVisualStyle
  2
EdgeColorOff
 70
    22
177
     3
291
     1
 70
    58
 90
        2
176
     0
 90
        2
176
     0
 90
        0
176
     0
 90
        0
176
     0
 40
0.6
176
     0
 40
30.0
176
     0
 62
     7
420
 16777215
176
     0
 90
        1
176
     0
 90
        4
176
     0
 62
     7
176
     0
 62
   257
176
     0
 90
        1
176
     0
 90
        1
176
     0
 40
1.0
176
     0
 90
        8
176
     2
 62
     7
176
     0
 40
1.0
176
     0
 90
        1
176
     0
 90
        6
176
     0
 90
        2
176
     0
 62
     7
176
     0
 90
        5
176
     0
 90
        0
176
     0
 90
        0
176
     0
290
     0
176
     0
 90
        1
176
     0
 40
0.0
176
     0
 90
        0
176
     0
290
     0
176
     0
290
     1
176
     0
290
     1
176
     0
290
     0
176
     0
290
     0
176
     0
290
     0
176
     0
290
     0
176
     0
290
     0
176
     0
290
     0
176
     0
 90
       50
176
     0
 40
0.0
176
     0
 40
1.0
176
     0
 90
        0
176
     0
 62
    18
420
        0
176
     0
 90
       50
176
     0
 90
        3
176
     0
 62
     5
420
      255
176
     0
290
     0
176
     0
 90
       50
176
     0
 90
       50
176
     0
 90
       50
176
     0
290
     0
176
     0
 90
       50
176
     0
 62
   256
176
     0
 40
1.0
176
     0
 90
        2
176
     0
  1
strokes_ogs.tif
176
     0
290
     0
176
     0
 40
1.0
176
     0
 40
1.0
176
     0
  0
VISUALSTYLE
  5
38
102
{ACAD_REACTORS
330
29
102
}
330
29
100
AcDbVisualStyle
  2
Facepattern
 70
    15
177
     3
291
     1
 70
    58
 90
        2
176
     1
 90
        2
176
     1
 90
        0
176
     1
 90
        0
176
     1
 40
0.6
176
     1
 40
30.0
176
     1
 62
     7
420
 16777215
176
     1
 90
        1
176
     1
 90
        4
176
     1
 62
     7
176
     1
 62
   257
176
     1
 90
        1
176
     1
 90
        1
176
     1
 40
1.0
176
     1
 90
        8
176
     1
 62
     7
176
     1
 40
1.0
176
     1
 90
        1
176
     1
 90
        6
176
     1
 90
        2
176
     1
 62
     7
176
     1
 90
        5
176
     1
 90
        0
176
     1
 90
        0
176
     1
290
     0
176
     1
 90
        1
176
     1
 40
0.0
176
     1
 90
        0
176
     1
290
     0
176
     1
290
     1
176
     1
290
     1
176
     1
290
     0
176
     1
290
     0
176
     1
290
     0
176
     1
290
     0
176
     1
290
     0
176
     1
290
     0
176
     1
 90
       50
176
     1
 40
0.0
176
     1
 40
1.0
176
     1
 90
        0
176
     1
 62
    18
420
        0
176
     1
 90
       50
176
     1
 90
        3
176
     1
 62
     5
420
      255
176
     1
290
     0
176
     1
 90
       50
176
     1
 90
       50
176
     1
 90
       50
176
     1
290
     0
176
     1
 90
       50
176
     1
 62
   256
176
     0
 40
1.0
176
     0
 90
        2
176
     1
  1
strokes_ogs.tif
176
     1
290
     0
176
     1
 40
1.0
176
     1
 40
1.0
176
     1
  0
VISUALSTYLE
  5
2A
102
{ACAD_REACTORS
330
29
102
}
330
29
100
AcDbVisualStyle
  2
Flat
 70
     0
177
     3
291
     1
 70
    58
 90
        2
176
     1
 90
        1
176
     1
 90
        1
176
     1
 90
        2
176
     1
 40
0.6
176
     1
 40
30.0
176
     1
 62
     7
420
 16777215
176
     1
 90
        0
176
     1
 90
        0
176
     1
 62
     7
176
     1
 62
   257
176
     1
 90
        1
176
     1
 90
        1
176
     1
 40
1.0
176
     1
 90
        8
176
     1
 62
     7
176
     1
 40
1.0
176
     1
 90
        1
176
     1
 90
        6
176
     1
 90
        2
176
     1
 62
     7
176
     1
 90
        5
176
     1
 90
        0
176
     1
 90
        0
176
     1
290
     0
176
     1
 90
       13
176
     1
 40
0.0
176
     1
 90
        0
176
     1
290
     0
176
     1
290
     1
176
     1
290
     1
176
     1
290
     0
176
     1
290
     0
176
     1
290
     0
176
     1
290
     0
176
     1
290
     0
176
     1
290
     0
176
     1
 90
       50
176
     1
 40
0.0
176
     1
 40
1.0
176
     1
 90
        0
176
     1
 62
    18
420
        0
176
     1
 90
       50
176
     1
 90
        3
176
     1
 62
     5
420
      255
176
     1
290
     0
176
     1
 90
       50
176
     1
 90
       50
176
     1
 90
       50
176
     1
290
     0
176
     1
 90
       50
176
     1
 62
   256
176
     0
 40
1.0
176
     0
 90
        2
176
     1
  1
strokes_ogs.tif
176
     1
290
     0
176
     1
 40
1.0
176
     1
 40
1.0
176
     1
  0
VISUALSTYLE
  5
2B
102
{ACAD_REACTORS
330
29
102
}
330
29
100
AcDbVisualStyle
  2
FlatWithEdges
 70
     1
177
     3
291
     1
 70
    58
 90
        2
176
     1
 90
        1
176
     1
 90
        1
176
     1
 90
        2
176
     1
 40
0.6
176
     1
 40
30.0
176
     1
 62
     7
420
 16777215
176
     1
 90
        1
176
     1
 90
        0
176
     1
 62
     7
176
     1
 62
   257
176
     1
 90
        1
176
     1
 90
        1
176
     1
 40
1.0
176
     1
 90
        0
176
     1
 62
   257
176
     1
 40
1.0
176
     1
 90
        1
176
     1
 90
        6
176
     1
 90
        2
176
     1
 62
     7
176
     1
 90
        5
176
     1
 90
        0
176
     1
 90
        0
176
     1
290
     0
176
     1
 90
       13
176
     1
 40
0.0
176
     1
 90
        0
176
     1
290
     0
176
     1
290
     1
176
     1
290
     1
176
     1
290
     0
176
     1
290
     0
176
     1
290
     0
176
     1
290
     0
176
     1
290
     0
176
     1
290
     0
176
     1
 90
       50
176
     1
 40
0.0
176
     1
 40
1.0
176
     1
 90
        0
176
     1
 62
    18
420
        0
176
     1
 90
       50
176
     1
 90
        3
176
     1
 62
     5
420
      255
176
     1
290
     0
176
     1
 90
       50
176
     1
 90
       50
176
     1
 90
       50
176
     1
290
     0
176
     1
 90
       50
176
     1
 62
   256
176
     0
 40
1.0
176
     0
 90
        2
176
     1
  1
strokes_ogs.tif
176
     1
290
     0
176
     1
 40
1.0
176
     1
 40
1.0
176
     1
  0
VISUALSTYLE
  5
2C
102
{ACAD_REACTORS
330
29
102
}
330
29
100
AcDbVisualStyle
  2
Gouraud
 70
     2
177
     3
291
     1
 70
    58
 90
        2
176
     1
 90
        2
176
     1
 90
        1
176
     1
 90
        2
176
     1
 40
0.6
176
     1
 40
30.0
176
     1
 62
     7
420
 16777215
176
     1
 90
        0
176
     1
 90
        0
176
     1
 62
     7
176
     1
 62
   257
176
     1
 90
        1
176
     1
 90
        1
176
     1
 40
1.0
176
     1
 90
        0
176
     1
 62
     7
176
     1
 40
1.0
176
     1
 90
        1
176
     1
 90
        6
176
     1
 90
        2
176
     1
 62
     7
176
     1
 90
        5
176
     1
 90
        0
176
     1
 90
        0
176
     1
290
     0
176
     1
 90
       13
176
     1
 40
0.0
176
     1
 90
        0
176
     1
290
     0
176
     1
290
     1
176
     1
290
     1
176
     1
290
     0
176
     1
290
     0
176
     1
290
     0
176
     1
290
     0
176
     1
290
     0
176
     1
290
     0
176
     1
 90
       50
176
     1
 40
0.0
176
     1
 40
1.0
176
     1
 90
        0
176
     1
 62
    18
420
        0
176
     1
 90
       50
176
     1
 90
        3
176
     1
 62
     5
420
      255
176
     1
290
     0
176
     1
 90
       50
176
     1
 90
       50
176
     1
 90
       50
176
     1
290
     0
176
     1
 90
       50
176
     1
 62
   256
176
     0
 40
1.0
176
     0
 90
        2
176
     1
  1
strokes_ogs.tif
176
     1
290
     0
176
     1
 40
1.0
176
     1
 40
1.0
176
     1
  0
VISUALSTYLE
  5
2D
102
{ACAD_REACTORS
330
29
102
}
330
29
100
AcDbVisualStyle
  2
GouraudWithEdges
 70
     3
177
     3
291
     1
 70
    58
 90
        2
176
     1
 90
        2
176
     1
 90
        1
176
     1
 90
        2
176
     1
 40
0.6
176
     1
 40
30.0
176
     1
 62
     7
420
 16777215
176
     1
 90
        1
176
     1
 90
        0
176
     1
 62
     7
176
     1
 62
   257
176
     1
 90
        1
176
     1
 90
        1
176
     1
 40
1.0
176
     1
 90
        0
176
     1
 62
   257
176
     1
 40
1.0
176
     1
 90
        1
176
     1
 90
        6
176
     1
 90
        2
176
     1
 62
     7
176
     1
 90
        5
176
     1
 90
        0
176
     1
 90
        0
176
     1
290
     0
176
     1
 90
       13
176
     1
 40
0.0
176
     1
 90
        0
176
     1
290
     0
176
     1
290
     1
176
     1
290
     1
176
     1
290
     0
176
     1
290
     0
176
     1
290
     0
176
     1
290
     0
176
     1
290
     0
176
     1
290
     0
176
     1
 90
       50
176
     1
 40
0.0
176
     1
 40
1.0
176
     1
 90
        0
176
     1
 62
    18
420
        0
176
     1
 90
       50
176
     1
 90
        3
176
     1
 62
     5
420
      255
176
     1
290
     0
176
     1
 90
       50
176
     1
 90
       50
176
     1
 90
       50
176
     1
290
     0
176
     1
 90
       50
176
     1
 62
   256
176
     0
 40
1.0
176
     0
 90
        2
176
     1
  1
strokes_ogs.tif
176
     1
290
     0
176
     1
 40
1.0
176
     1
 40
1.0
176
     1
  0
VISUALSTYLE
  5
31
102
{ACAD_REACTORS
330
29
102
}
330
29
100
AcDbVisualStyle
  2
Hidden
 70
     6
177
     3
291
     0
 70
    58
 90
        1
176
     1
 90
        2
176
     1
 90
        2
176
     1
 90
        0
176
     1
 40
0.6
176
     1
 40
30.0
176
     1
 62
     7
420
 16777215
176
     1
 90
        2
176
     1
 90
        2
176
     1
 62
     7
176
     1
 62
   257
176
     1
 90
        2
176
     1
 90
        1
176
     1
 40
40.0
176
     1
 90
        0
176
     1
 62
   257
176
     1
 40
1.0
176
     1
 90
        1
176
     1
 90
        6
176
     1
 90
        2
176
     1
 62
     7
176
     1
 90
        3
176
     1
 90
        0
176
     1
 90
        0
176
     1
290
     0
176
     1
 90
        1
176
     1
 40
0.0
176
     1
 90
        0
176
     1
290
     0
176
     1
290
     1
176
     1
290
     1
176
     1
290
     0
176
     1
290
     0
176
     1
290
     0
176
     1
290
     0
176
     1
290
     0
176
     1
290
     0
176
     1
 90
       50
176
     1
 40
0.0
176
     1
 40
1.0
176
     1
 90
        0
176
     1
 62
    18
420
        0
176
     1
 90
       50
176
     1
 90
        3
176
     1
 62
     5
420
      255
176
     1
290
     0
176
     1
 90
       50
176
     1
 90
       50
176
     1
 90
       50
176
     1
290
     0
176
     1
 90
       50
176
     1
 62
   256
176
     0
 40
1.0
176
     0
 90
        2
176
     1
  1
strokes_ogs.tif
176
     1
290
     0
176
     1
 40
1.0
176
     1
 40
1.0
176
     1
  0
VISUALSTYLE
  5
3F
102
{ACAD_REACTORS
330
29
102
}
330
29
100
AcDbVisualStyle
  2
JitterOff
 70
    20
177
     3
291
     1
 70
    58
 90
        2
176
     0
 90
        2
176
     0
 90
        0
176
     0
 90
        0
176
     0
 40
0.6
176
     0
 40
30.0
176
     0
 62
     7
420
 16777215
176
     0
 90
        1
176
     0
 90
        4
176
     0
 62
     7
176
     0
 62
   257
176
     0
 90
        1
176
     0
 90
        1
176
     0
 40
1.0
176
     0
 90
       10
176
     2
 62
     7
176
     0
 40
1.0
176
     0
 90
        1
176
     0
 90
        6
176
     0
 90
        2
176
     0
 62
     7
176
     0
 90
        5
176
     0
 90
        0
176
     0
 90
        0
176
     0
290
     0
176
     0
 90
        1
176
     0
 40
0.0
176
     0
 90
        0
176
     0
290
     0
176
     0
290
     1
176
     0
290
     1
176
     0
290
     0
176
     0
290
     0
176
     0
290
     0
176
     0
290
     0
176
     0
290
     0
176
     0
290
     0
176
     0
 90
       50
176
     0
 40
0.0
176
     0
 40
1.0
176
     0
 90
        0
176
     0
 62
    18
420
        0
176
     0
 90
       50
176
     0
 90
        3
176
     0
 62
     5
420
      255
176
     0
290
     0
176
     0
 90
       50
176
     0
 90
       50
176
     0
 90
       50
176
     0
290
     0
176
     0
 90
       50
176
     0
 62
   256
176
     0
 40
1.0
176
     0
 90
        2
176
     0
  1
strokes_ogs.tif
176
     0
290
     0
176
     0
 40
1.0
176
     0
 40
1.0
176
     0
  0
VISUALSTYLE
  5
37
102
{ACAD_REACTORS
330
29
102
}
330
29
100
AcDbVisualStyle
  2
Linepattern
 70
    14
177
     3
291
     1
 70
    58
 90
        2
176
     1
 90
        2
176
     1
 90
        0
176
     1
 90
        0
176
     1
 40
0.6
176
     1
 40
30.0
176
     1
 62
     7
420
 16777215
176
     1
 90
        1
176
     1
 90
        4
176
     1
 62
     7
176
     1
 62
   257
176
     1
 90
        7
176
     1
 90
        7
176
     1
 40
1.0
176
     1
 90
        8
176
     1
 62
     7
176
     1
 40
1.0
176
     1
 90
        1
176
     1
 90
        6
176
     1
 90
        2
176
     1
 62
     7
176
     1
 90
        5
176
     1
 90
        0
176
     1
 90
        0
176
     1
290
     0
176
     1
 90
        1
176
     1
 40
0.0
176
     1
 90
        0
176
     1
290
     0
176
     1
290
     1
176
     1
290
     1
176
     1
290
     0
176
     1
290
     0
176
     1
290
     0
176
     1
290
     0
176
     1
290
     0
176
     1
290
     0
176
     1
 90
       50
176
     1
 40
0.0
176
     1
 40
1.0
176
     1
 90
        0
176
     1
 62
    18
420
        0
176
     1
 90
       50
176
     1
 90
        3
176
     1
 62
     5
420
      255
176
     1
290
     0
176
     1
 90
       50
176
     1
 90
       50
176
     1
 90
       50
176
     1
290
     0
176
     1
 90
       50
176
     1
 62
   256
176
     0
 40
1.0
176
     0
 90
        2
176
     1
  1
strokes_ogs.tif
176
     1
290
     0
176
     1
 40
1.0
176
     1
 40
1.0
176
     1
  0
VISUALSTYLE
  5
40
102
{ACAD_REACTORS
330
29
102
}
330
29
100
AcDbVisualStyle
  2
OverhangOff
 70
    21
177
     3
291
     1
 70
    58
 90
        2
176
     0
 90
        2
176
     0
 90
        0
176
     0
 90
        0
176
     0
 40
0.6
176
     0
 40
30.0
176
     0
 62
     7
420
 16777215
176
     0
 90
        1
176
     0
 90
        4
176
     0
 62
     7
176
     0
 62
   257
176
     0
 90
        1
176
     0
 90
        1
176
     0
 40
1.0
176
     0
 90
        9
176
     2
 62
     7
176
     0
 40
1.0
176
     0
 90
        1
176
     0
 90
        6
176
     0
 90
        2
176
     0
 62
     7
176
     0
 90
        5
176
     0
 90
        0
176
     0
 90
        0
176
     0
290
     0
176
     0
 90
        1
176
     0
 40
0.0
176
     0
 90
        0
176
     0
290
     0
176
     0
290
     1
176
     0
290
     1
176
     0
290
     0
176
     0
290
     0
176
     0
290
     0
176
     0
290
     0
176
     0
290
     0
176
     0
290
     0
176
     0
 90
       50
176
     0
 40
0.0
176
     0
 40
1.0
176
     0
 90
        0
176
     0
 62
    18
420
        0
176
     0
 90
       50
176
     0
 90
        3
176
     0
 62
     5
420
      255
176
     0
290
     0
176
     0
 90
       50
176
     0
 90
       50
176
     0
 90
       50
176
     0
290
     0
176
     0
 90
       50
176
     0
 62
   256
176
     0
 40
1.0
176
     0
 90
        2
176
     0
  1
strokes_ogs.tif
176
     0
290
     0
176
     0
 40
1.0
176
     0
 40
1.0
176
     0
  0
VISUALSTYLE
  5
33
102
{ACAD_REACTORS
330
29
102
}
330
29
100
AcDbVisualStyle
  2
Realistic
 70
     8
177
     3
291
     0
 70
    58
 90
        2
176
     1
 90
        3
176
     1
 90
        0
176
     1
 90
        2
176
     1
 40
0.6
176
     1
 40
30.0
176
     1
 62
     7
420
 16777215
176
     1
 90
        0
176
     1
 90
        0
176
     1
 62
     7
176
     1
 62
   257
176
     1
 90
        1
176
     1
 90
        1
176
     1
 40
1.0
176
     1
 90
        8
176
     1
 62
   257
176
     1
 40
1.0
176
     1
 90
        1
176
     1
 90
        6
176
     1
 90
        2
176
     1
 62
     7
176
     1
 90
        3
176
     1
 90
        0
176
     1
 90
        0
176
     1
290
     0
176
     1
 90
       13
176
     1
 40
0.0
176
     1
 90
        0
176
     1
290
     0
176
     1
290
     1
176
     1
290
     1
176
     1
290
     0
176
     1
290
     0
176
     1
290
     0
176
     1
290
     0
176
     1
290
     0
176
     1
290
     0
176
     1
 90
       50
176
     1
 40
0.0
176
     1
 40
1.0
176
     1
 90
        0
176
     1
 62
    18
420
        0
176
     1
 90
       50
176
     1
 90
        3
176
     1
 62
     5
420
      255
176
     1
290
     0
176
     1
 90
       50
176
     1
 90
       50
176
     1
 90
       50
176
     1
290
     0
176
     1
 90
       50
176
     1
 62
   256
176
     0
 40
1.0
176
     0
 90
        2
176
     1
  1
strokes_ogs.tif
176
     1
290
     0
176
     1
 40
1.0
176
     1
 40
1.0
176
     1
  0
VISUALSTYLE
  5
3E
102
{ACAD_REACTORS
330
29
102
}
330
29
100
AcDbVisualStyle
  2
Shaded
 70
    27
177
     3
291
     0
 70
    58
 90
        2
176
     1
 90
        2
176
     1
 90
        1
176
     1
 90
        2
176
     1
 40
0.6
176
     1
 40
30.0
176
     1
 62
     7
420
 16777215
176
     1
 90
        0
176
     1
 90
        4
176
     1
 62
     7
176
     1
 62
   257
176
     1
 90
        1
176
     1
 90
        1
176
     1
 40
1.0
176
     1
 90
        8
176
     1
 62
   257
176
     1
 40
1.0
176
     1
 90
        1
176
     1
 90
        6
176
     1
 90
        2
176
     1
 62
     8
420
  7895160
176
     1
 90
        3
176
     1
 90
        0
176
     1
 90
        0
176
     1
290
     0
176
     1
 90
        5
176
     1
 40
0.0
176
     1
 90
        0
176
     1
290
     0
176
     1
290
     1
176
     1
290
     1
176
     1
290
     0
176
     1
290
     0
176
     1
290
     0
176
     1
290
     0
176
     1
290
     0
176
     1
290
     0
176
     1
 90
       50
176
     1
 40
0.0
176
     1
 40
1.0
176
     1
 90
        0
176
     1
 62
    18
420
        0
176
     1
 90
       50
176
     1
 90
        3
176
     1
 62
     5
420
      255
176
     1
290
     0
176
     1
 90
       50
176
     1
 90
       50
176
     1
 90
       50
176
     1
290
     0
176
     1
 90
       50
176
     1
 62
   256
176
     0
 40
1.0
176
     0
 90
        2
176
     1
  1
strokes_ogs.tif
176
     1
290
     0
176
     1
 40
1.0
176
     1
 40
1.0
176
     1
  0
VISUALSTYLE
  5
3D
102
{ACAD_REACTORS
330
29
102
}
330
29
100
AcDbVisualStyle
  2
Shaded with edges
 70
    26
177
     3
291
     0
 70
    58
 90
        2
176
     1
 90
        2
176
     1
 90
        1
176
     1
 90
        2
176
     1
 40
0.6
176
     1
 40
30.0
176
     1
 62
     7
420
 16777215
176
     1
 90
        1
176
     1
 90
        2
176
     1
 62
     7
176
     1
 62
   257
176
     1
 90
        2
176
     1
 90
        1
176
     1
 40
1.0
176
     1
 90
        8
176
     1
 62
   257
176
     1
 40
1.0
176
     1
 90
        1
176
     1
 90
        6
176
     1
 90
        2
176
     1
 62
     7
176
     1
 90
        3
176
     1
 90
        0
176
     1
 90
        0
176
     1
290
     0
176
     1
 90
        5
176
     1
 40
0.0
176
     1
 90
        0
176
     1
290
     0
176
     1
290
     1
176
     1
290
     1
176
     1
290
     0
176
     1
290
     0
176
     1
290
     0
176
     1
290
     0
176
     1
290
     0
176
     1
290
     0
176
     1
 90
       50
176
     1
 40
0.0
176
     1
 40
1.0
176
     1
 90
        0
176
     1
 62
    18
420
        0
176
     1
 90
       50
176
     1
 90
        3
176
     1
 62
     5
420
      255
176
     1
290
     0
176
     1
 90
       50
176
     1
 90
       50
176
     1
 90
       50
176
     1
290
     0
176
     1
 90
       50
176
     1
 62
   256
176
     0
 40
1.0
176
     0
 90
        2
176
     1
  1
strokes_ogs.tif
176
     1
290
     0
176
     1
 40
1.0
176
     1
 40
1.0
176
     1
  0
VISUALSTYLE
  5
3A
102
{ACAD_REACTORS
330
29
102
}
330
29
100
AcDbVisualStyle
  2
Shades of Gray
 70
    23
177
     3
291
     0
 70
    58
 90
        2
176
     1
 90
        2
176
     1
 90
        3
176
     1
 90
        0
176
     1
 40
0.6
176
     1
 40
30.0
176
     1
 62
     7
420
 16777215
176
     1
 90
        2
176
     1
 90
        2
176
     1
 62
     7
176
     1
 62
     7
176
     1
 90
        1
176
     1
 90
        1
176
     1
 40
40.0
176
     1
 90
        8
176
     1
 62
     7
176
     1
 40
1.0
176
     1
 90
        1
176
     1
 90
        6
176
     1
 90
        2
176
     1
 62
     7
176
     1
 90
        3
176
     1
 90
        0
176
     1
 90
        0
176
     1
290
     0
176
     1
 90
        1
176
     1
 40
0.0
176
     1
 90
        0
176
     1
290
     0
176
     1
290
     1
176
     1
290
     1
176
     1
290
     0
176
     1
290
     0
176
     1
290
     0
176
     1
290
     0
176
     1
290
     0
176
     1
290
     0
176
     1
 90
       50
176
     1
 40
0.0
176
     1
 40
1.0
176
     1
 90
        0
176
     1
 62
    18
420
        0
176
     1
 90
       50
176
     1
 90
        3
176
     1
 62
     5
420
      255
176
     1
290
     0
176
     1
 90
       50
176
     1
 90
       50
176
     1
 90
       50
176
     1
290
     0
176
     1
 90
       50
176
     1
 62
   256
176
     0
 40
1.0
176
     0
 90
        2
176
     1
  1
strokes_ogs.tif
176
     1
290
     0
176
     1
 40
1.0
176
     1
 40
1.0
176
     1
  0
VISUALSTYLE
  5
3B
102
{ACAD_REACTORS
330
29
102
}
330
29
100
AcDbVisualStyle
  2
Sketchy
 70
    24
177
     3
291
     0
 70
    58
 90
        1
176
     1
 90
        2
176
     1
 90
        2
176
     1
 90
        0
176
     1
 40
0.6
176
     1
 40
30.0
176
     1
 62
     7
420
 16777215
176
     1
 90
        2
176
     1
 90
        2
176
     1
 62
     7
176
     1
 62
     7
176
     1
 90
        1
176
     1
 90
        1
176
     1
 40
40.0
176
     1
 90
       11
176
     1
 62
     7
176
     1
 40
1.0
176
     1
 90
        1
176
     1
 90
        6
176
     1
 90
        2
176
     1
 62
     7
176
     1
 90
        6
176
     1
 90
        0
176
     1
 90
        0
176
     1
290
     0
176
     1
 90
        1
176
     1
 40
0.0
176
     1
 90
        0
176
     1
290
     0
176
     1
290
     1
176
     1
290
     1
176
     1
290
     0
176
     1
290
     0
176
     1
290
     0
176
     1
290
     0
176
     1
290
     0
176
     1
290
     0
176
     1
 90
       50
176
     1
 40
0.0
176
     1
 40
1.0
176
     1
 90
        0
176
     1
 62
    18
420
        0
176
     1
 90
       50
176
     1
 90
        3
176
     1
 62
     5
420
      255
176
     1
290
     0
176
     1
 90
       50
176
     1
 90
       50
176
     1
 90
       50
176
     1
290
     0
176
     1
 90
       50
176
     1
 62
   256
176
     0
 40
1.0
176
     0
 90
        2
176
     1
  1
strokes_ogs.tif
176
     1
290
     0
176
     1
 40
1.0
176
     1
 40
1.0
176
     1
  0
VISUALSTYLE
  5
36
102
{ACAD_REACTORS
330
29
102
}
330
29
100
AcDbVisualStyle
  2
Thicken
 70
    13
177
     3
291
     1
 70
    58
 90
        2
176
     1
 90
        2
176
     1
 90
        0
176
     1
 90
        0
176
     1
 40
0.6
176
     1
 40
30.0
176
     1
 62
     7
420
 16777215
176
     1
 90
        1
176
     1
 90
        4
176
     1
 62
     7
176
     1
 62
   257
176
     1
 90
        1
176
     1
 90
        1
176
     1
 40
1.0
176
     1
 90
       12
176
     1
 62
     7
176
     1
 40
1.0
176
     1
 90
        1
176
     1
 90
        6
176
     1
 90
        2
176
     1
 62
     7
176
     1
 90
        5
176
     1
 90
        0
176
     1
 90
        0
176
     1
290
     0
176
     1
 90
        1
176
     1
 40
0.0
176
     1
 90
        0
176
     1
290
     0
176
     1
290
     1
176
     1
290
     1
176
     1
290
     0
176
     1
290
     0
176
     1
290
     0
176
     1
290
     0
176
     1
290
     0
176
     1
290
     0
176
     1
 90
       50
176
     1
 40
0.0
176
     1
 40
1.0
176
     1
 90
        0
176
     1
 62
    18
420
        0
176
     1
 90
       50
176
     1
 90
        3
176
     1
 62
     5
420
      255
176
     1
290
     0
176
     1
 90
       50
176
     1
 90
       50
176
     1
 90
       50
176
     1
290
     0
176
     1
 90
       50
176
     1
 62
   256
176
     0
 40
1.0
176
     0
 90
        2
176
     1
  1
strokes_ogs.tif
176
     1
290
     0
176
     1
 40
1.0
176
     1
 40
1.0
176
     1
  0
VISUALSTYLE
  5
30
102
{ACAD_REACTORS
330
29
102
}
330
29
100
AcDbVisualStyle
  2
Wireframe
 70
     5
177
     3
291
     0
 70
    58
 90
        0
176
     1
 90
        2
176
     1
 90
        0
176
     1
 90
        0
176
     1
 40
0.6
176
     1
 40
30.0
176
     1
 62
     7
420
 16777215
176
     1
 90
        1
176
     1
 90
        4
176
     1
 62
     7
176
     1
 62
   257
176
     1
 90
        1
176
     1
 90
        1
176
     1
 40
1.0
176
     1
 90
        0
176
     1
 62
   257
176
     1
 40
1.0
176
     1
 90
        1
176
     1
 90
        6
176
     1
 90
        2
176
     1
 62
     7
176
     1
 90
        3
176
     1
 90
        0
176
     1
 90
        0
176
     1
290
     0
176
     1
 90
        1
176
     1
 40
0.0
176
     1
 90
        0
176
     1
290
     0
176
     1
290
     1
176
     1
290
     1
176
     1
290
     0
176
     1
290
     0
176
     1
290
     0
176
     1
290
     0
176
     1
290
     0
176
     1
290
     0
176
     1
 90
       50
176
     1
 40
0.0
176
     1
 40
1.0
176
     1
 90
        0
176
     1
 62
    18
420
        0
176
     1
 90
       50
176
     1
 90
        3
176
     1
 62
     5
420
      255
176
     1
290
     0
176
     1
 90
       50
176
     1
 90
       50
176
     1
 90
       50
176
     1
290
     0
176
     1
 90
       50
176
     1
 62
   256
176
     0
 40
1.0
176
     0
 90
        2
176
     1
  1
strokes_ogs.tif
176
     1
290
     0
176
     1
 40
1.0
176
     1
 40
1.0
176
     1
  0
VISUALSTYLE
  5
3C
102
{ACAD_REACTORS
330
29
102
}
330
29
100
AcDbVisualStyle
  2
X-Ray
 70
    25
177
     3
291
     0
 70
    58
 90
        2
176
     1
 90
        2
176
     1
 90
        1
176
     1
 90
        1
176
     1
 40
0.5
176
     1
 40
30.0
176
     1
 62
     7
420
 16777215
176
     1
 90
        1
176
     1
 90
        0
176
     1
 62
     7
176
     1
 62
   257
176
     1
 90
        1
176
     1
 90
        1
176
     1
 40
1.0
176
     1
 90
        8
176
     1
 62
     7
176
     1
 40
1.0
176
     1
 90
        1
176
     1
 90
        6
176
     1
 90
        2
176
     1
 62
     7
176
     1
 90
        3
176
     1
 90
        0
176
     1
 90
        0
176
     1
290
     0
176
     1
 90
       13
176
     1
 40
0.0
176
     1
 90
        0
176
     1
290
     0
176
     1
290
     1
176
     1
290
     1
176
     1
290
     0
176
     1
290
     0
176
     1
290
     0
176
     1
290
     0
176
     1
290
     0
176
     1
290
     0
176
     1
 90
       50
176
     1
 40
0.0
176
     1
 40
1.0
176
     1
 90
        0
176
     1
 62
    18
420
        0
176
     1
 90
       50
176
     1
 90
        3
176
     1
 62
     5
420
      255
176
     1
290
     0
176
     1
 90
       50
176
     1
 90
       50
176
     1
 90
       50
176
     1
290
     0
176
     1
 90
       50
176
     1
 62
   256
176
     0
 40
1.0
176
     0
 90
        2
176
     1
  1
strokes_ogs.tif
176
     1
290
     0
176
     1
 40
1.0
176
     1
 40
1.0
176
     1
  0
DICTIONARYVAR
  5
1A1
102
{ACAD_REACTORS
330
19C
102
}
330
19C
100
DictionaryVariables
280
     0
  1
1:1
  0
DICTIONARYVAR
  5
19E
102
{ACAD_REACTORS
330
19C
102
}
330
19C
100
DictionaryVariables
280
     0
  1
STANDARD
  0
DICTIONARYVAR
  5
19D
102
{ACAD_REACTORS
330
19C
102
}
330
19C
100
DictionaryVariables
280
     0
  1
STANDARD
  0
DICTIONARYVAR
  5
19F
102
{ACAD_REACTORS
330
19C
102
}
330
19C
100
DictionaryVariables
280
     0
  1
Imperial24
  0
DICTIONARYVAR
  5
1A0
102
{ACAD_REACTORS
330
19C
102
}
330
19C
100
DictionaryVariables
280
     0
  1
Imperial24
  0
DICTIONARY
  5
1A
330
19
100
AcDbDictionary
280
     1
281
     1
  3
BUMPTILE
360
1C
  3
DIFFUSETILE
360
1B
  3
OPACITYTILE
360
1F
  3
REFLECTIONTILE
360
1E
  3
REFRACTIONTILE
360
20
  3
SPECULARTILE
360
1D
  0
DICTIONARY
  5
12
330
11
100
AcDbDictionary
280
     1
281
     1
  3
BUMPTILE
360
14
  3
DIFFUSETILE
360
13
  3
OPACITYTILE
360
17
  3
REFLECTIONTILE
360
16
  3
REFRACTIONTILE
360
18
  3
SPECULARTILE
360
15
  0
DICTIONARY
  5
22
330
21
100
AcDbDictionary
280
     1
281
     1
  3
BUMPTILE
360
24
  3
DIFFUSETILE
360
23
  3
OPACITYTILE
360
27
  3
REFLECTIONTILE
360
26
  3
REFRACTIONTILE
360
28
  3
SPECULARTILE
360
25
  0
DICTIONARY
  5
1A2
330
65
100
AcDbDictionary
280
     1
281
     1
  3
ACAD_ROUNDTRIP_2008_TABLESTYLE_CELLSTYLEMAP
360
1A3
  0
XRECORD
  5
1C
102
{ACAD_REACTORS
330
1A
102
}
330
1A
100
AcDbXrecord
280
     1
270
     1
271
     1
  0
XRECORD
  5
1B
102
{ACAD_REACTORS
330
1A
102
}
330
1A
100
AcDbXrecord
280
     1
270
     1
271
     1
  0
XRECORD
  5
1F
102
{ACAD_REACTORS
330
1A
102
}
330
1A
100
AcDbXrecord
280
     1
270
     1
271
     1
  0
XRECORD
  5
1E
102
{ACAD_REACTORS
330
1A
102
}
330
1A
100
AcDbXrecord
280
     1
270
     1
271
     1
  0
XRECORD
  5
20
102
{ACAD_REACTORS
330
1A
102
}
330
1A
100
AcDbXrecord
280
     1
270
     1
271
     1
  0
XRECORD
  5
1D
102
{ACAD_REACTORS
330
1A
102
}
330
1A
100
AcDbXrecord
280
     1
270
     1
271
     1
  0
XRECORD
  5
14
102
{ACAD_REACTORS
330
12
102
}
330
12
100
AcDbXrecord
280
     1
270
     1
271
     1
  0
XRECORD
  5
13
102
{ACAD_REACTORS
330
12
102
}
330
12
100
AcDbXrecord
280
     1
270
     1
271
     1
  0
XRECORD
  5
17
102
{ACAD_REACTORS
330
12
102
}
330
12
100
AcDbXrecord
280
     1
270
     1
271
     1
  0
XRECORD
  5
16
102
{ACAD_REACTORS
330
12
102
}
330
12
100
AcDbXrecord
280
     1
270
     1
271
     1
  0
XRECORD
  5
18
102
{ACAD_REACTORS
330
12
102
}
330
12
100
AcDbXrecord
280
     1
270
     1
271
     1
  0
XRECORD
  5
15
102
{ACAD_REACTORS
330
12
102
}
330
12
100
AcDbXrecord
280
     1
270
     1
271
     1
  0
XRECORD
  5
24
102
{ACAD_REACTORS
330
22
102
}
330
22
100
AcDbXrecord
280
     1
270
     1
271
     1
  0
XRECORD
  5
23
102
{ACAD_REACTORS
330
22
102
}
330
22
100
AcDbXrecord
280
     1
270
     1
271
     1
  0
XRECORD
  5
27
102
{ACAD_REACTORS
330
22
102
}
330
22
100
AcDbXrecord
280
     1
270
     1
271
     1
  0
XRECORD
  5
26
102
{ACAD_REACTORS
330
22
102
}
330
22
100
AcDbXrecord
280
     1
270
     1
271
     1
  0
XRECORD
  5
28
102
{ACAD_REACTORS
330
22
102
}
330
22
100
AcDbXrecord
280
     1
270
     1
271
     1
  0
XRECORD
  5
25
102
{ACAD_REACTORS
330
22
102
}
330
22
100
AcDbXrecord
280
     1
270
     1
271
     1
  0
CELLSTYLEMAP
  5
1A3
102
{ACAD_REACTORS
330
1A2
102
}
330
1A2
100
AcDbCellStyleMap
 90
        3
300
CELLSTYLE
  1
TABLEFORMAT_BEGIN
 90
        5
170
     1
 91
        0
 92
    32768
 62
   257
 93
        1
300
CONTENTFORMAT
  1
CONTENTFORMAT_BEGIN
 90
        0
 91
        0
 92
      512
 93
        0
300

 40
0.0
140
1.0
 94
        5
 62
     0
340
55
144
0.25
309
CONTENTFORMAT_END
171
     0
 94
        0
309
TABLEFORMAT_END
  1
CELLSTYLE_BEGIN
 90
        1
 91
        1
300
_TITLE
309
CELLSTYLE_END
300
CELLSTYLE
  1
TABLEFORMAT_BEGIN
 90
        5
170
     1
 91
        0
 92
        0
 62
   257
 93
        1
300
CONTENTFORMAT
  1
CONTENTFORMAT_BEGIN
 90
        0
 91
        0
 92
      512
 93
        0
300

 40
0.0
140
1.0
 94
        5
 62
     0
340
55
144
0.18
309
CONTENTFORMAT_END
171
     0
 94
        0
309
TABLEFORMAT_END
  1
CELLSTYLE_BEGIN
 90
        2
 91
        1
300
_HEADER
309
CELLSTYLE_END
300
CELLSTYLE
  1
TABLEFORMAT_BEGIN
 90
        5
170
     1
 91
        0
 92
        0
 62
   257
 93
        1
300
CONTENTFORMAT
  1
CONTENTFORMAT_BEGIN
 90
        0
 91
        0
 92
      512
 93
        0
300

 40
0.0
140
1.0
 94
        2
 62
     0
340
55
144
0.18
309
CONTENTFORMAT_END
171
     0
 94
        0
309
TABLEFORMAT_END
  1
CELLSTYLE_BEGIN
 90
        3
 91
        2
300
_DATA
309
CELLSTYLE_END
  0
ENDSEC
  0
EOF
